  0
SECTION
  2
HEADER
  9
$ACADVER
  1
AC1015
  9
$ACADMAINTVER
 70
    10
  9
$DWGCODEPAGE
  3
ANSI_1252
  9
$INSBASE
 10
0.0
 20
0.0
 30
0.0
  9
$EXTMIN
 10
-0.0003661829982491
 20
-0.0002746372486868
 30
-0.0015258207003583
  9
$EXTMAX
 10
1.250244156050314
 20
1.250106823456132
 30
0.0000000349246037
  9
$LIMMIN
 10
0.0
 20
0.0
  9
$LIMMAX
 10
12.0
 20
9.0
  9
$ORTHOMODE
 70
     1
  9
$REGENMODE
 70
     1
  9
$FILLMODE
 70
     1
  9
$QTEXTMODE
 70
     0
  9
$MIRRTEXT
 70
     1
  9
$LTSCALE
 40
1.0
  9
$ATTMODE
 70
     1
  9
$TEXTSIZE
 40
0.2
  9
$TRACEWID
 40
0.05
  9
$TEXTSTYLE
  7
style1
  9
$CLAYER
  8
dim
  9
$CELTYPE
  6
ByLayer
  9
$CECOLOR
 62
   256
  9
$CELTSCALE
 40
1.0
  9
$DISPSILH
 70
     0
  9
$DIMSCALE
 40
0.125
  9
$DIMASZ
 40
0.18
  9
$DIMEXO
 40
0.0625
  9
$DIMDLI
 40
0.38
  9
$DIMRND
 40
0.0
  9
$DIMDLE
 40
0.0
  9
$DIMEXE
 40
0.18
  9
$DIMTP
 40
0.0
  9
$DIMTM
 40
0.0
  9
$DIMTXT
 40
0.18
  9
$DIMCEN
 40
0.09
  9
$DIMTSZ
 40
0.0
  9
$DIMTOL
 70
     0
  9
$DIMLIM
 70
     0
  9
$DIMTIH
 70
     1
  9
$DIMTOH
 70
     1
  9
$DIMSE1
 70
     0
  9
$DIMSE2
 70
     0
  9
$DIMTAD
 70
     0
  9
$DIMZIN
 70
     4
  9
$DIMBLK
  1

  9
$DIMASO
 70
     1
  9
$DIMSHO
 70
     1
  9
$DIMPOST
  1

  9
$DIMAPOST
  1

  9
$DIMALT
 70
     0
  9
$DIMALTD
 70
     2
  9
$DIMALTF
 40
25.4
  9
$DIMLFAC
 40
1.0
  9
$DIMTOFL
 70
     0
  9
$DIMTVP
 40
0.0
  9
$DIMTIX
 70
     0
  9
$DIMSOXD
 70
     0
  9
$DIMSAH
 70
     0
  9
$DIMBLK1
  1

  9
$DIMBLK2
  1

  9
$DIMSTYLE
  2
Standard
  9
$DIMCLRD
 70
     0
  9
$DIMCLRE
 70
     0
  9
$DIMCLRT
 70
     0
  9
$DIMTFAC
 40
1.0
  9
$DIMGAP
 40
0.09
  9
$DIMJUST
 70
     0
  9
$DIMSD1
 70
     0
  9
$DIMSD2
 70
     0
  9
$DIMTOLJ
 70
     1
  9
$DIMTZIN
 70
     0
  9
$DIMALTZ
 70
     0
  9
$DIMALTTZ
 70
     0
  9
$DIMUPT
 70
     1
  9
$DIMDEC
 70
     3
  9
$DIMTDEC
 70
     3
  9
$DIMALTU
 70
     2
  9
$DIMALTTD
 70
     2
  9
$DIMTXSTY
  7
Standard
  9
$DIMAUNIT
 70
     0
  9
$DIMADEC
 70
     0
  9
$DIMALTRND
 40
0.0
  9
$DIMAZIN
 70
     0
  9
$DIMDSEP
 70
    46
  9
$DIMATFIT
 70
     3
  9
$DIMFRAC
 70
     0
  9
$DIMLDRBLK
  1

  9
$DIMLUNIT
 70
     2
  9
$DIMLWD
 70
    -2
  9
$DIMLWE
 70
    -2
  9
$DIMTMOVE
 70
     0
  9
$LUNITS
 70
     2
  9
$LUPREC
 70
     4
  9
$SKETCHINC
 40
0.1
  9
$FILLETRAD
 40
0.03
  9
$AUNITS
 70
     0
  9
$AUPREC
 70
     0
  9
$MENU
  1
.
  9
$ELEVATION
 40
0.0
  9
$PELEVATION
 40
0.0
  9
$THICKNESS
 40
0.0
  9
$LIMCHECK
 70
     0
  9
$CHAMFERA
 40
0.0
  9
$CHAMFERB
 40
0.0
  9
$CHAMFERC
 40
1.0
  9
$CHAMFERD
 40
0.0
  9
$SKPOLY
 70
     0
  9
$TDCREATE
 40
2454509.949108217
  9
$TDUCREATE
 40
2454510.115774884
  9
$TDUPDATE
 40
2456232.808843611
  9
$TDUUPDATE
 40
2456232.975510278
  9
$TDINDWG
 40
21.3392827431
  9
$TDUSRTIMER
 40
21.3392827431
  9
$USRTIMER
 70
     1
  9
$ANGBASE
 50
0.0
  9
$ANGDIR
 70
     0
  9
$PDMODE
 70
     0
  9
$PDSIZE
 40
0.0
  9
$PLINEWID
 40
0.0
  9
$SPLFRAME
 70
     0
  9
$SPLINETYPE
 70
     6
  9
$SPLINESEGS
 70
     8
  9
$HANDSEED
  5
19C
  9
$SURFTAB1
 70
     6
  9
$SURFTAB2
 70
     6
  9
$SURFTYPE
 70
     6
  9
$SURFU
 70
     6
  9
$SURFV
 70
     6
  9
$UCSBASE
  2

  9
$UCSNAME
  2

  9
$UCSORG
 10
0.0
 20
0.0
 30
0.0
  9
$UCSXDIR
 10
1.0
 20
0.0
 30
0.0
  9
$UCSYDIR
 10
0.0
 20
1.0
 30
0.0
  9
$UCSORTHOREF
  2

  9
$UCSORTHOVIEW
 70
     0
  9
$UCSORGTOP
 10
0.0
 20
0.0
 30
0.0
  9
$UCSORGBOTTOM
 10
0.0
 20
0.0
 30
0.0
  9
$UCSORGLEFT
 10
0.0
 20
0.0
 30
0.0
  9
$UCSORGRIGHT
 10
0.0
 20
0.0
 30
0.0
  9
$UCSORGFRONT
 10
0.0
 20
0.0
 30
0.0
  9
$UCSORGBACK
 10
0.0
 20
0.0
 30
0.0
  9
$PUCSBASE
  2

  9
$PUCSNAME
  2

  9
$PUCSORG
 10
0.0
 20
0.0
 30
0.0
  9
$PUCSXDIR
 10
1.0
 20
0.0
 30
0.0
  9
$PUCSYDIR
 10
0.0
 20
1.0
 30
0.0
  9
$PUCSORTHOREF
  2

  9
$PUCSORTHOVIEW
 70
     0
  9
$PUCSORGTOP
 10
0.0
 20
0.0
 30
0.0
  9
$PUCSORGBOTTOM
 10
0.0
 20
0.0
 30
0.0
  9
$PUCSORGLEFT
 10
0.0
 20
0.0
 30
0.0
  9
$PUCSORGRIGHT
 10
0.0
 20
0.0
 30
0.0
  9
$PUCSORGFRONT
 10
0.0
 20
0.0
 30
0.0
  9
$PUCSORGBACK
 10
0.0
 20
0.0
 30
0.0
  9
$USERI1
 70
     0
  9
$USERI2
 70
     0
  9
$USERI3
 70
     0
  9
$USERI4
 70
     0
  9
$USERI5
 70
     0
  9
$USERR1
 40
0.0
  9
$USERR2
 40
0.0
  9
$USERR3
 40
0.0
  9
$USERR4
 40
0.0
  9
$USERR5
 40
0.0
  9
$WORLDVIEW
 70
     1
  9
$SHADEDGE
 70
     3
  9
$SHADEDIF
 70
    70
  9
$TILEMODE
 70
     1
  9
$MAXACTVP
 70
    64
  9
$PINSBASE
 10
0.0
 20
0.0
 30
0.0
  9
$PLIMCHECK
 70
     0
  9
$PEXTMIN
 10
0.0
 20
0.0
 30
0.0
  9
$PEXTMAX
 10
0.0
 20
0.0
 30
0.0
  9
$PLIMMIN
 10
0.0
 20
0.0
  9
$PLIMMAX
 10
12.0
 20
9.0
  9
$UNITMODE
 70
     0
  9
$VISRETAIN
 70
     1
  9
$PLINEGEN
 70
     0
  9
$PSLTSCALE
 70
     1
  9
$TREEDEPTH
 70
  3020
  9
$CMLSTYLE
  2
Standard
  9
$CMLJUST
 70
     0
  9
$CMLSCALE
 40
1.0
  9
$PROXYGRAPHICS
 70
     1
  9
$MEASUREMENT
 70
     0
  9
$CELWEIGHT
370
    -1
  9
$ENDCAPS
280
     0
  9
$JOINSTYLE
280
     0
  9
$LWDISPLAY
290
     0
  9
$INSUNITS
 70
     1
  9
$HYPERLINKBASE
  1

  9
$STYLESHEET
  1

  9
$XEDIT
290
     1
  9
$CEPSNTYPE
380
     0
  9
$PSTYLEMODE
290
     1
  9
$FINGERPRINTGUID
  2
{FDEAD576-A652-11D2-9A35-0060089B3A3F}
  9
$VERSIONGUID
  2
{83DC2BAE-30B8-45C6-AD9B-FC3B5DE2AC93}
  9
$EXTNAMES
290
     1
  9
$PSVPSCALE
 40
0.0
  9
$OLESTARTUP
290
     0
  0
ENDSEC
  0
SECTION
  2
CLASSES
  0
CLASS
  1
ACDBDICTIONARYWDFLT
  2
AcDbDictionaryWithDefault
  3
AutoCAD 2000
 90
        0
280
     0
281
     0
  0
CLASS
  1
ACDBPLACEHOLDER
  2
AcDbPlaceHolder
  3
AutoCAD 2000
 90
        0
280
     0
281
     0
  0
CLASS
  1
LAYOUT
  2
AcDbLayout
  3
AutoCAD 2000
 90
        0
280
     0
281
     0
  0
CLASS
  1
TABLESTYLE
  2
AcDbTableStyle
  3
ObjectDBX Classes
 90
    34815
280
     1
281
     0
  0
CLASS
  1
DICTIONARYVAR
  2
AcDbDictionaryVar
  3
AutoCAD 2000
 90
    32768
280
     0
281
     0
  0
CLASS
  1
SORTENTSTABLE
  2
AcDbSortentsTable
  3
AutoCAD 2000
 90
        0
280
     0
281
     0
  0
CLASS
  1
MATERIAL
  2
AcDbMaterial
  3
ObjectDBX Classes
 90
    32768
280
     1
281
     0
  0
CLASS
  1
DIMASSOC
  2
AcDbDimAssoc
  3
"AcDbDimAssoc|Product Desc:     AcDim ARX App For Dimension|Company:          Autodesk, Inc.|WEB Address:      www.autodesk.com"
 90
    32768
280
     1
281
     0
  0
ENDSEC
  0
SECTION
  2
TABLES
  0
TABLE
  2
VPORT
  5
25
330
0
100
AcDbSymbolTable
 70
     3
  0
VPORT
  5
19B
330
25
100
AcDbSymbolTableRecord
100
AcDbViewportTableRecord
  2
*Active
 70
     0
 10
0.0
 20
0.0
 11
1.0
 21
1.0
 12
0.6249389865260327
 22
0.6249160931037228
 13
0.0
 23
0.0
 14
0.5
 24
0.5
 15
0.5
 25
0.5
 16
0.0
 26
0.0
 36
1.0
 17
0.0
 27
0.0
 37
0.0
 40
1.266870007439388
 41
2.070484581497797
 42
50.0
 43
0.0
 44
0.0
 50
0.0
 51
0.0
 71
     0
 72
   100
 73
     1
 74
     2
 75
     0
 76
     0
 77
     0
 78
     0
281
     0
 65
     1
110
0.0
120
0.0
130
0.0
111
1.0
121
0.0
131
0.0
112
0.0
122
1.0
132
0.0
 79
     0
146
0.0
  0
ENDTAB
  0
TABLE
  2
LTYPE
  5
20
330
0
100
AcDbSymbolTable
 70
     1
  0
LTYPE
  5
21
330
20
100
AcDbSymbolTableRecord
100
AcDbLinetypeTableRecord
  2
ByBlock
 70
     0
  3

 72
    65
 73
     0
 40
0.0
  0
LTYPE
  5
22
330
20
100
AcDbSymbolTableRecord
100
AcDbLinetypeTableRecord
  2
ByLayer
 70
     0
  3

 72
    65
 73
     0
 40
0.0
  0
LTYPE
  5
A
330
20
100
AcDbSymbolTableRecord
100
AcDbLinetypeTableRecord
  2
Continuous
 70
     0
  3
Solid line
 72
    65
 73
     0
 40
0.0
  0
ENDTAB
  0
TABLE
  2
LAYER
  5
17
102
{ACAD_XDICTIONARY
360
18
102
}
330
0
100
AcDbSymbolTable
 70
    11
  0
LAYER
  5
6
330
17
100
AcDbSymbolTableRecord
100
AcDbLayerTableRecord
  2
0
 70
     0
 62
     7
  6
Continuous
370
    -3
390
7
  0
LAYER
  5
2F
330
17
100
AcDbSymbolTableRecord
100
AcDbLayerTableRecord
  2
dim
 70
     0
 62
     3
  6
Continuous
370
    -3
390
7
  0
LAYER
  5
36
330
17
100
AcDbSymbolTableRecord
100
AcDbLayerTableRecord
  2
lay1
 70
     0
 62
     4
  6
Continuous
370
    -3
390
7
  0
LAYER
  5
43
330
17
100
AcDbSymbolTableRecord
100
AcDbLayerTableRecord
  2
ZDRILL
 70
     0
 62
     1
  6
Continuous
370
    -3
390
7
  0
LAYER
  5
41
330
17
100
AcDbSymbolTableRecord
100
AcDbLayerTableRecord
  2
LAY2
 70
     0
 62
     5
  6
Continuous
370
    -3
390
7
  0
LAYER
  5
3B
102
{ACAD_XDICTIONARY
360
3C
102
}
330
17
100
AcDbSymbolTableRecord
100
AcDbLayerTableRecord
  2
MSK-NS
 70
     0
 62
    11
  6
Continuous
370
    -3
390
7
  0
LAYER
  5
4F
102
{ACAD_XDICTIONARY
360
50
102
}
330
17
100
AcDbSymbolTableRecord
100
AcDbLayerTableRecord
  2
PCB
 70
     0
 62
     3
  6
Continuous
370
    -3
390
7
  0
LAYER
  5
56
102
{ACAD_XDICTIONARY
360
57
102
}
330
17
100
AcDbSymbolTableRecord
100
AcDbLayerTableRecord
  2
SLK-NS
 70
     0
 62
     2
  6
Continuous
370
    -3
390
7
  0
LAYER
  5
CF
330
17
100
AcDbSymbolTableRecord
100
AcDbLayerTableRecord
  2
SCRATCH1
 70
     0
 62
     5
  6
Continuous
370
    -3
390
7
  0
LAYER
  5
33
330
17
100
AcDbSymbolTableRecord
100
AcDbLayerTableRecord
  2
MSK-NS-SCRATCH
 70
     0
 62
     2
  6
Continuous
370
    -3
390
7
  0
LAYER
  5
3F
330
17
100
AcDbSymbolTableRecord
100
AcDbLayerTableRecord
  2
LAY3
 70
     0
 62
     4
  6
Continuous
370
    -3
390
7
  0
ENDTAB
  0
TABLE
  2
STYLE
  5
1D
330
0
100
AcDbSymbolTable
 70
     2
  0
STYLE
  5
1E
330
1D
100
AcDbSymbolTableRecord
100
AcDbTextStyleTableRecord
  2
Standard
 70
     0
 40
0.0
 41
1.0
 50
0.0
 71
     0
 42
0.2
  3
txt
  4

  0
STYLE
  5
30
330
1D
100
AcDbSymbolTableRecord
100
AcDbTextStyleTableRecord
  2
style1
 70
     0
 40
0.0
 41
1.0
 50
0.0
 71
     0
 42
0.2
  3
sanss___.ttf
  4

1001
ACAD
1000
SansSerif
1071
      514
  0
ENDTAB
  0
TABLE
  2
VIEW
  5
23
330
0
100
AcDbSymbolTable
 70
     0
  0
ENDTAB
  0
TABLE
  2
UCS
  5
24
330
0
100
AcDbSymbolTable
 70
     0
  0
ENDTAB
  0
TABLE
  2
APPID
  5
27
330
0
100
AcDbSymbolTable
 70
     3
  0
APPID
  5
28
330
27
100
AcDbSymbolTableRecord
100
AcDbRegAppTableRecord
  2
ACAD
 70
     0
  0
APPID
  5
10
330
27
100
AcDbSymbolTableRecord
100
AcDbRegAppTableRecord
  2
ACAD_PSEXT
 70
     0
  0
APPID
  5
37
330
27
100
AcDbSymbolTableRecord
100
AcDbRegAppTableRecord
  2
cdspoly
 70
     0
  0
ENDTAB
  0
TABLE
  2
DIMSTYLE
  5
29
330
0
100
AcDbSymbolTable
 70
     1
100
AcDbDimStyleTable
 71
     1
340
2A
  0
DIMSTYLE
105
2A
330
29
100
AcDbSymbolTableRecord
100
AcDbDimStyleTableRecord
  2
Standard
 70
     0
 40
0.25
 78
     4
271
     3
272
     3
288
     1
340
1E
  0
ENDTAB
  0
TABLE
  2
BLOCK_RECORD
  5
1
330
0
100
AcDbSymbolTable
 70
     0
  0
BLOCK_RECORD
  5
2
102
{ACAD_XDICTIONARY
360
3
102
}
330
1
100
AcDbSymbolTableRecord
100
AcDbBlockTableRecord
  2
*Model_Space
340
C
  0
BLOCK_RECORD
  5
11
330
1
100
AcDbSymbolTableRecord
100
AcDbBlockTableRecord
  2
*Paper_Space
340
14
  0
ENDTAB
  0
ENDSEC
  0
SECTION
  2
BLOCKS
  0
BLOCK
  5
5
330
2
100
AcDbEntity
  8
0
100
AcDbBlockBegin
  2
*Model_Space
 70
     0
 10
0.0
 20
0.0
 30
0.0
  3
*Model_Space
  1

  0
ENDBLK
  5
B
330
2
100
AcDbEntity
  8
0
100
AcDbBlockEnd
  0
BLOCK
  5
12
330
11
100
AcDbEntity
 67
     1
  8
0
100
AcDbBlockBegin
  2
*Paper_Space
 70
     0
 10
0.0
 20
0.0
 30
0.0
  3
*Paper_Space
  1

  0
ENDBLK
  5
13
330
11
100
AcDbEntity
 67
     1
  8
0
100
AcDbBlockEnd
  0
ENDSEC
  0
SECTION
  2
ENTITIES
  0
LWPOLYLINE
  5
32
330
2
100
AcDbEntity
  8
MSK-NS-SCRATCH
100
AcDbPolyline
 90
        8
 70
     1
 43
0.0
 10
0.7355826771657093
 20
0.7007150500560684
 10
1.03699999999999
 20
0.7007150500560666
 10
1.03699999999999
 20
0.4937150500310699
 10
1.25
 20
0.4937150500310699
 10
1.25
 20
1.013715050031067
 10
1.036999999999991
 20
1.013715050031072
 10
1.036999999999991
 20
0.8067150500060673
 10
0.7355826771657093
 20
0.8067150500060691
  0
LWPOLYLINE
  5
34
330
2
100
AcDbEntity
  8
MSK-NS-SCRATCH
100
AcDbPolyline
 90
       23
 70
     1
 43
0.0
 10
0.4228235357325687
 20
0.2734500417558998
 42
0.0886510258939131
 10
0.3889121068534607
 20
0.2129999999971321
 10
0.5849999999999973
 20
0.2129999999971324
 10
0.5849999999999973
 20
0.0
 10
0.0649999999999995
 20
0.0
 10
0.0649999999999942
 20
0.2129999999971315
 10
0.2789785413845216
 20
0.2129999999971313
 42
-0.118814135423971
 10
0.3409417834178132
 20
0.3407655572873542
 10
0.5173339445896872
 20
0.5553267789806056
 42
0.1379258403463992
 10
0.5602346589795993
 20
0.6529748925503647
 10
0.7108872136785039
 20
0.6529748925503649
 42
0.1264496706100906
 10
0.7523510948013535
 20
0.5640969333721291
 10
0.9090582165827996
 20
0.3734803477252311
 42
-0.1466544654260902
 10
0.9763118146777536
 20
0.2129999999971321
 10
1.184999999999996
 20
0.2129999999971324
 10
1.184999999999996
 20
0.0
 10
0.6649999999999992
 20
0.0
 10
0.6649999999999956
 20
0.2129999999971315
 10
0.8693934404221792
 20
0.212999999997131
 42
0.1320655853513255
 10
0.8271764642680459
 20
0.3061648321937769
 10
0.670469342486598
 20
0.4967814178406745
 42
-0.0497242148322883
 10
0.6370870299400711
 20
0.5467782977423599
 42
-0.0578770703792248
 10
0.5992156969044427
 20
0.4880112634491509
  0
LWPOLYLINE
  5
35
330
2
100
AcDbEntity
  8
lay1
100
AcDbPolyline
 90
       52
 70
     1
 43
0.0
 10
0.8000000000000007
 20
0.0049999999999999
 10
0.8000000000000007
 20
0.0000000000000351
 10
0.9117000000001596
 20
0.0000000000000369
 10
0.9117000000037194
 20
0.1810595815795693
 42
0.1737360062007762
 10
0.8578434979149882
 20
0.3313763979139259
 10
0.7011363761335403
 20
0.5219929835608238
 42
-0.1737360062007735
 10
0.6412275590656798
 20
0.6892021839868297
 10
0.6412275590660919
 20
0.7073339476679762
 10
0.6678275590660903
 20
0.7073339476679762
 10
0.66782755906568
 20
0.6892021839863341
 42
0.1737360062007735
 10
0.7216840611544093
 20
0.5388853676519798
 10
0.8783911829358572
 20
0.348268782005082
 42
-0.1737360062007762
 10
0.9383000000037178
 20
0.1810595815790741
 10
0.9383000000001615
 20
0.0000000000000377
 10
1.05
 20
0.00000000000004
 10
1.05
 20
0.0049999999999999
 10
1.245
 20
0.0049999999999999
 10
1.245
 20
0.6287150500310675
 10
1.249999999998259
 20
0.6287150500310675
 10
1.250000000000031
 20
0.7404150500312614
 10
0.6812236220481314
 20
0.7404150500205624
 10
0.6812236220481314
 20
0.7670150500205631
 10
1.249999999994185
 20
0.7670150500312598
 10
1.249999999992827
 20
0.8787150500310669
 10
1.245
 20
0.8787150500310669
 10
1.245
 20
1.245
 10
0.004999999999999
 20
1.245
 10
0.004999999999999
 20
0.8787150500310669
 10
0.0000000000058158
 20
0.8787150500310669
 10
0.0000000000058158
 20
0.7670150500312598
 10
0.5687763779518687
 20
0.7670150500205631
 10
0.5687763779518687
 20
0.7404150500205629
 10
-0.000000000000032
 20
0.7404150500312614
 10
0.0000000000008562
 20
0.628715050031067
 10
0.004999999999999
 20
0.6287150500310672
 10
0.004999999999999
 20
0.0049999999999999
 10
0.1999999999999993
 20
0.0049999999999999
 10
0.1999999999999993
 20
0.0000000000000249
 10
0.3116999999998367
 20
0.0000000000000271
 10
0.3116999999968932
 20
0.1483447911412039
 42
-0.1737360062007698
 10
0.3716088170647573
 20
0.3155539915672052
 10
0.5480009782366313
 20
0.5301152132604566
 42
0.1737360061911894
 10
0.6018574803253625
 20
0.680432029586002
 10
0.6018574803259363
 20
0.7073339476679759
 10
0.6284574803259382
 20
0.7073339476679762
 10
0.6284574803253627
 20
0.6804320295855071
 42
-0.1737360061911894
 10
0.5685486632575003
 20
0.5132228291693004
 10
0.3921565020856263
 20
0.2986616074760491
 42
0.1737360062007698
 10
0.3382999999968952
 20
0.1483447911416982
 10
0.3382999999998368
 20
0.0000000000000271
 10
0.4500000000000011
 20
0.0000000000000289
 10
0.4500000000000011
 20
0.0050000000000003
1001
cdspoly
1000

  0
LWPOLYLINE
  5
38
330
2
100
AcDbEntity
  8
lay1
100
AcDbPolyline
 90
       14
 70
     1
 43
0.0
 10
0.6470275590656787
 20
0.6892021839867211
 42
0.1737360062007735
 10
0.7056166984313244
 20
0.5256762853551356
 10
0.8623238202127705
 20
0.3350596997082376
 42
-0.1737360062007762
 10
0.9175000000037183
 20
0.1810595815794613
 10
0.9175000000011301
 20
0.0419999999748422
 10
0.9195000000249997
 20
0.0019999999971185
 10
0.9305000000249954
 20
0.0019999999971185
 10
0.9325000000011307
 20
0.0419999999745633
 10
0.9325000000037189
 20
0.181059581579182
 42
0.1737360062007762
 10
0.8739108606380732
 20
0.3445854802107702
 10
0.7172037388566271
 20
0.5352020658576679
 42
-0.1737360062007735
 10
0.662027559065681
 20
0.689202183986442
 10
0.6620275590659848
 20
0.7015339476688551
 10
0.6470275590659842
 20
0.7015339476691347
  0
LWPOLYLINE
  5
39
330
2
100
AcDbEntity
  8
lay1
100
AcDbPolyline
 90
        6
 70
     1
 43
0.0
 10
1.208000000000012
 20
0.7462150500299352
 10
0.6870236220472528
 20
0.7462150500201763
 10
0.6870236220472528
 20
0.7612150500201765
 10
1.208000000022288
 20
0.7612150500299375
 10
1.248000000000011
 20
0.759215050006068
 10
1.248000000000011
 20
0.7482150500060705
  0
LWPOLYLINE
  5
3A
330
2
100
AcDbEntity
  8
MSK-NS
100
AcDbPolyline
 90
        4
 70
     1
 43
0.0
 10
1.25
 20
1.25
 10
0.0
 20
1.25
 10
0.0
 20
0.0
 10
1.25
 20
0.0
1001
cdspoly
1000

  0
LWPOLYLINE
  5
3E
330
2
100
AcDbEntity
  8
LAY3
100
AcDbPolyline
 90
        4
 70
     1
 43
0.0
 10
1.245
 20
1.245
 10
0.004999999999999
 20
1.245
 10
0.004999999999999
 20
0.0049999999999999
 10
1.245
 20
0.0049999999999999
1001
cdspoly
1000

  0
LWPOLYLINE
  5
40
330
2
100
AcDbEntity
  8
LAY2
100
AcDbPolyline
 90
        4
 70
     1
 43
0.0
 10
1.245
 20
1.245
 10
0.004999999999999
 20
1.245
 10
0.004999999999999
 20
0.0049999999999999
 10
1.245
 20
0.0049999999999999
1001
cdspoly
1000

  0
CIRCLE
  5
42
330
2
100
AcDbEntity
  8
ZDRILL
100
AcDbCircle
 10
0.9100000000000054
 20
1.230186023455171
 30
0.0000000000000001
 40
0.0075
  0
CIRCLE
  5
44
330
2
100
AcDbEntity
  8
ZDRILL
100
AcDbCircle
 10
0.9100000000000054
 20
1.156715050006067
 30
0.0000000000000001
 40
0.0075
  0
CIRCLE
  5
45
330
2
100
AcDbEntity
  8
ZDRILL
100
AcDbCircle
 10
0.9100000000000054
 20
1.056715050006067
 30
0.0000000000000001
 40
0.0075
  0
CIRCLE
  5
46
330
2
100
AcDbEntity
  8
ZDRILL
100
AcDbCircle
 10
0.9100000000000019
 20
0.4507150500560666
 30
0.0000000000000001
 40
0.0075
  0
CIRCLE
  5
47
330
2
100
AcDbEntity
  8
ZDRILL
100
AcDbCircle
 10
0.9100000000000054
 20
0.5507150500560663
 30
0.0000000000000001
 40
0.0075
  0
CIRCLE
  5
48
330
2
100
AcDbEntity
  8
ZDRILL
100
AcDbCircle
 10
0.9100000000000054
 20
0.6507150500560659
 30
0.0000000000000001
 40
0.0075
  0
CIRCLE
  5
49
330
2
100
AcDbEntity
  8
ZDRILL
100
AcDbCircle
 10
0.9100000000000054
 20
0.856715050006068
 30
0.0000000000000001
 40
0.0075
  0
CIRCLE
  5
4A
330
2
100
AcDbEntity
  8
ZDRILL
100
AcDbCircle
 10
0.9100000000000054
 20
0.9567150500060677
 30
0.0000000000000001
 40
0.0075
  0
CIRCLE
  5
4B
330
2
100
AcDbEntity
  8
ZDRILL
100
AcDbCircle
 10
0.9100000000000179
 20
0.7867150500060696
 30
0.0000000000000001
 40
0.0075
  0
CIRCLE
  5
4C
330
2
100
AcDbEntity
  8
ZDRILL
100
AcDbCircle
 10
0.9100000000000179
 20
0.7207150500060707
 30
0.0000000000000001
 40
0.0075
  0
CIRCLE
  5
4D
330
2
100
AcDbEntity
  8
ZDRILL
100
AcDbCircle
 10
0.9091515393615026
 20
0.3399999999971122
 30
0.0
 40
0.0075
  0
LWPOLYLINE
  5
4E
330
2
100
AcDbEntity
  8
PCB
100
AcDbPolyline
 90
        4
 70
     1
 43
0.0
 10
1.25
 20
1.25
 10
0.0
 20
1.25
 10
0.0
 20
0.0
 10
1.25
 20
0.0
1001
cdspoly
1000

  0
LWPOLYLINE
  5
52
330
2
100
AcDbEntity
  8
lay1
100
AcDbPolyline
 90
       14
 70
     1
 43
0.0
 10
0.3760891393625396
 20
0.3118706897728933
 10
0.5524813005344136
 20
0.5264319114661447
 42
0.1737360061911894
 10
0.6076574803253614
 20
0.6804320295858939
 10
0.6076574803258286
 20
0.7015339476688558
 10
0.6226574803258292
 20
0.7015339476685769
 10
0.6226574803253638
 20
0.680432029585615
 42
-0.1737360061911894
 10
0.5640683409597181
 20
0.5169061309636123
 10
0.3876761797878423
 20
0.3023449092703609
 42
0.1737360062007698
 10
0.3324999999968945
 20
0.1483447911415905
 10
0.3324999999988698
 20
0.0419999999748422
 10
0.3304999999750002
 20
0.0019999999971185
 10
0.3194999999750046
 20
0.0019999999971185
 10
0.3174999999988692
 20
0.0419999999971177
 10
0.3174999999968939
 20
0.1483447911413116
 42
-0.1737360062007698
  0
CIRCLE
  5
53
330
2
100
AcDbEntity
  8
ZDRILL
100
AcDbCircle
 10
0.3662034083544867
 20
0.3399999999971124
 30
0.0
 40
0.0075
  0
CIRCLE
  5
54
330
2
100
AcDbEntity
  8
ZDRILL
100
AcDbCircle
 10
0.3701719475895633
 20
0.2199999999971149
 30
0.0
 40
0.0075
  0
TEXT
  5
55
330
2
100
AcDbEntity
  8
SLK-NS
100
AcDbText
 10
0.0547595436148072
 20
0.2480859949560397
 30
0.0
 40
0.04
  1
IF1
100
AcDbText
  0
TEXT
  5
59
330
2
100
AcDbEntity
  8
SLK-NS
100
AcDbText
 10
0.0547595436148072
 20
0.3057989936761885
 30
0.0
 40
0.04
  1
J3
100
AcDbText
  0
CIRCLE
  5
5A
330
2
100
AcDbEntity
  8
ZDRILL
100
AcDbCircle
 10
0.0399999999999956
 20
0.050715050056068
 30
0.0000000000000001
 40
0.0075
  0
CIRCLE
  5
5B
330
2
100
AcDbEntity
  8
ZDRILL
100
AcDbCircle
 10
0.0399999999999956
 20
0.1507150500560677
 30
0.0000000000000001
 40
0.0075
  0
CIRCLE
  5
5C
330
2
100
AcDbEntity
  8
ZDRILL
100
AcDbCircle
 10
0.0399999999999956
 20
0.2507150500560673
 30
0.0000000000000001
 40
0.0075
  0
CIRCLE
  5
5D
330
2
100
AcDbEntity
  8
ZDRILL
100
AcDbCircle
 10
0.0399999999999956
 20
0.350715050056067
 30
0.0000000000000001
 40
0.0075
  0
CIRCLE
  5
5E
330
2
100
AcDbEntity
  8
ZDRILL
100
AcDbCircle
 10
0.3603212917814282
 20
0.1799999999971156
 30
0.0
 40
0.0075
  0
CIRCLE
  5
5F
330
2
100
AcDbEntity
  8
ZDRILL
100
AcDbCircle
 10
0.2937759829898798
 20
0.1799999999971156
 30
0.0
 40
0.0075
  0
CIRCLE
  5
60
330
2
100
AcDbEntity
  8
ZDRILL
100
AcDbCircle
 10
0.2220000000249982
 20
0.1399999999971238
 30
0.0000000000000001
 40
0.0075
  0
CIRCLE
  5
61
330
2
100
AcDbEntity
  8
ZDRILL
100
AcDbCircle
 10
0.2220000000249982
 20
0.0399999999971223
 30
0.0000000000000001
 40
0.0075
  0
CIRCLE
  5
62
330
2
100
AcDbEntity
  8
ZDRILL
100
AcDbCircle
 10
0.1374999999999993
 20
0.1099999999971226
 30
0.0
 40
0.0405
  0
CIRCLE
  5
63
330
2
100
AcDbEntity
  8
ZDRILL
100
AcDbCircle
 10
0.2919999999750047
 20
0.1399999999971166
 30
0.0000000000000001
 40
0.0075
  0
CIRCLE
  5
64
330
2
100
AcDbEntity
  8
ZDRILL
100
AcDbCircle
 10
0.3579999999750036
 20
0.1399999999971166
 30
0.0000000000000001
 40
0.0075
  0
CIRCLE
  5
65
330
2
100
AcDbEntity
  8
ZDRILL
100
AcDbCircle
 10
0.2919999999750047
 20
0.0999999999971175
 30
0.0000000000000001
 40
0.0075
  0
CIRCLE
  5
66
330
2
100
AcDbEntity
  8
ZDRILL
100
AcDbCircle
 10
0.2919999999750047
 20
0.0599999999971184
 30
0.0000000000000001
 40
0.0075
  0
CIRCLE
  5
67
330
2
100
AcDbEntity
  8
ZDRILL
100
AcDbCircle
 10
0.3579999999750036
 20
0.0999999999971175
 30
0.0000000000000001
 40
0.0075
  0
CIRCLE
  5
68
330
2
100
AcDbEntity
  8
ZDRILL
100
AcDbCircle
 10
0.3579999999750036
 20
0.0599999999971184
 30
0.0000000000000001
 40
0.0075
  0
CIRCLE
  5
69
330
2
100
AcDbEntity
  8
ZDRILL
100
AcDbCircle
 10
0.2919999999750047
 20
0.0199999999971192
 30
0.0000000000000001
 40
0.0075
  0
CIRCLE
  5
6A
330
2
100
AcDbEntity
  8
ZDRILL
100
AcDbCircle
 10
0.3579999999750036
 20
0.0199999999971192
 30
0.0000000000000001
 40
0.0075
  0
CIRCLE
  5
6B
330
2
100
AcDbEntity
  8
ZDRILL
100
AcDbCircle
 10
0.2399999999999949
 20
0.2507150500560673
 30
0.0000000000000001
 40
0.0075
  0
CIRCLE
  5
6C
330
2
100
AcDbEntity
  8
ZDRILL
100
AcDbCircle
 10
0.2399999999999949
 20
0.350715050056067
 30
0.0000000000000001
 40
0.0075
  0
CIRCLE
  5
6D
330
2
100
AcDbEntity
  8
ZDRILL
100
AcDbCircle
 10
0.1399999999999952
 20
0.2507150500560673
 30
0.0000000000000001
 40
0.0075
  0
CIRCLE
  5
6E
330
2
100
AcDbEntity
  8
ZDRILL
100
AcDbCircle
 10
0.1399999999999952
 20
0.350715050056067
 30
0.0000000000000001
 40
0.0075
  0
CIRCLE
  5
6F
330
2
100
AcDbEntity
  8
ZDRILL
100
AcDbCircle
 10
0.3399999999999945
 20
0.350715050056067
 30
0.0000000000000001
 40
0.0075
  0
CIRCLE
  5
70
330
2
100
AcDbEntity
  8
ZDRILL
100
AcDbCircle
 10
0.3360654951272153
 20
0.2999999999971132
 30
0.0
 40
0.0075
  0
CIRCLE
  5
71
330
2
100
AcDbEntity
  8
ZDRILL
100
AcDbCircle
 10
0.3149574759255422
 20
0.2599999999971139
 30
0.0
 40
0.0075
  0
CIRCLE
  5
72
330
2
100
AcDbEntity
  8
ZDRILL
100
AcDbCircle
 10
0.3012217484255171
 20
0.2199999999971149
 30
0.0
 40
0.0075
  0
CIRCLE
  5
73
330
2
100
AcDbEntity
  8
ZDRILL
100
AcDbCircle
 10
0.5124999999999993
 20
0.1099999999971226
 30
0.0
 40
0.0405
  0
CIRCLE
  5
74
330
2
100
AcDbEntity
  8
ZDRILL
100
AcDbCircle
 10
0.4279999999750004
 20
0.1399999999971238
 30
0.0000000000000001
 40
0.0075
  0
CIRCLE
  5
75
330
2
100
AcDbEntity
  8
ZDRILL
100
AcDbCircle
 10
0.4279999999750004
 20
0.0399999999971223
 30
0.0000000000000001
 40
0.0075
  0
CIRCLE
  5
76
330
2
100
AcDbEntity
  8
ZDRILL
100
AcDbCircle
 10
0.6249999999999983
 20
0.1507150500560677
 30
0.0000000000000001
 40
0.0075
  0
CIRCLE
  5
77
330
2
100
AcDbEntity
  8
ZDRILL
100
AcDbCircle
 10
0.6249999999999983
 20
0.050715050056068
 30
0.0000000000000001
 40
0.0075
  0
CIRCLE
  5
78
330
2
100
AcDbEntity
  8
ZDRILL
100
AcDbCircle
 10
0.424999999999999
 20
0.2507150500560673
 30
0.0000000000000001
 40
0.0075
  0
CIRCLE
  5
79
330
2
100
AcDbEntity
  8
ZDRILL
100
AcDbCircle
 10
0.3990876657761859
 20
0.3799999999971115
 30
0.0
 40
0.0075
  0
CIRCLE
  5
7A
330
2
100
AcDbEntity
  8
ZDRILL
100
AcDbCircle
 10
0.4845279475976909
 20
0.3799999999971115
 30
0.0
 40
0.0075
  0
CIRCLE
  5
7B
330
2
100
AcDbEntity
  8
ZDRILL
100
AcDbCircle
 10
0.4516436901759917
 20
0.3399999999971124
 30
0.0
 40
0.0075
  0
CIRCLE
  5
7C
330
2
100
AcDbEntity
  8
ZDRILL
100
AcDbCircle
 10
0.4187594327542961
 20
0.2999999999971132
 30
0.0
 40
0.0075
  0
CIRCLE
  5
7D
330
2
100
AcDbEntity
  8
ZDRILL
100
AcDbCircle
 10
0.3889298133873797
 20
0.2599999999971139
 30
0.0
 40
0.0075
  0
CIRCLE
  5
7E
330
2
100
AcDbEntity
  8
ZDRILL
100
AcDbCircle
 10
0.5249999999999986
 20
0.2507150500560673
 30
0.0000000000000001
 40
0.0075
  0
CIRCLE
  5
7F
330
2
100
AcDbEntity
  8
ZDRILL
100
AcDbCircle
 10
0.5249999999999986
 20
0.350715050056067
 30
0.0000000000000001
 40
0.0075
  0
CIRCLE
  5
80
330
2
100
AcDbEntity
  8
ZDRILL
100
AcDbCircle
 10
0.6249999999999983
 20
0.350715050056067
 30
0.0000000000000001
 40
0.0075
  0
CIRCLE
  5
81
330
2
100
AcDbEntity
  8
ZDRILL
100
AcDbCircle
 10
0.6249999999999983
 20
0.2507150500560673
 30
0.0000000000000001
 40
0.0075
  0
CIRCLE
  5
82
330
2
100
AcDbEntity
  8
ZDRILL
100
AcDbCircle
 10
0.8920000000231986
 20
0.1799999999971158
 30
0.0
 40
0.0075
  0
CIRCLE
  5
83
330
2
100
AcDbEntity
  8
ZDRILL
100
AcDbCircle
 10
0.7375000000000007
 20
0.1099999999971226
 30
0.0
 40
0.0405
  0
CIRCLE
  5
84
330
2
100
AcDbEntity
  8
ZDRILL
100
AcDbCircle
 10
0.8220000000249996
 20
0.1399999999971238
 30
0.0000000000000001
 40
0.0075
  0
CIRCLE
  5
85
330
2
100
AcDbEntity
  8
ZDRILL
100
AcDbCircle
 10
0.8220000000249996
 20
0.0399999999971223
 30
0.0000000000000001
 40
0.0075
  0
CIRCLE
  5
86
330
2
100
AcDbEntity
  8
ZDRILL
100
AcDbCircle
 10
0.8920000000249963
 20
0.0199999999971192
 30
0.0000000000000001
 40
0.0075
  0
CIRCLE
  5
87
330
2
100
AcDbEntity
  8
ZDRILL
100
AcDbCircle
 10
0.8920000000249963
 20
0.0599999999971184
 30
0.0000000000000001
 40
0.0075
  0
CIRCLE
  5
88
330
2
100
AcDbEntity
  8
ZDRILL
100
AcDbCircle
 10
0.8920000000249963
 20
0.0999999999971175
 30
0.0000000000000001
 40
0.0075
  0
CIRCLE
  5
89
330
2
100
AcDbEntity
  8
ZDRILL
100
AcDbCircle
 10
0.8920000000249963
 20
0.1399999999971166
 30
0.0000000000000001
 40
0.0075
  0
CIRCLE
  5
8A
330
2
100
AcDbEntity
  8
ZDRILL
100
AcDbCircle
 10
0.7249999999999979
 20
0.2507150500560673
 30
0.0000000000000001
 40
0.0075
  0
CIRCLE
  5
8B
330
2
100
AcDbEntity
  8
ZDRILL
100
AcDbCircle
 10
0.7249999999999979
 20
0.350715050056067
 30
0.0000000000000001
 40
0.0075
  0
CIRCLE
  5
8C
330
2
100
AcDbEntity
  8
ZDRILL
100
AcDbCircle
 10
0.8249999999999975
 20
0.2507150500560673
 30
0.0000000000000001
 40
0.0075
  0
CIRCLE
  5
8D
330
2
100
AcDbEntity
  8
ZDRILL
100
AcDbCircle
 10
0.8884775019149806
 20
0.2199999999971149
 30
0.0
 40
0.0075
  0
CIRCLE
  5
8E
330
2
100
AcDbEntity
  8
ZDRILL
100
AcDbCircle
 10
0.8771321606047024
 20
0.2599999999971139
 30
0.0
 40
0.0075
  0
CIRCLE
  5
8F
330
2
100
AcDbEntity
  8
ZDRILL
100
AcDbCircle
 10
0.8564997985605522
 20
0.2999999999971132
 30
0.0
 40
0.0075
  0
CIRCLE
  5
90
330
2
100
AcDbEntity
  8
ZDRILL
100
AcDbCircle
 10
0.8252513495810216
 20
0.3399999999971124
 30
0.0
 40
0.0075
  0
CIRCLE
  5
91
330
2
100
AcDbEntity
  8
ZDRILL
100
AcDbCircle
 10
0.8778073739808291
 20
0.3799999999971115
 30
0.0
 40
0.0075
  0
CIRCLE
  5
92
330
2
100
AcDbEntity
  8
ZDRILL
100
AcDbCircle
 10
0.7923670921593243
 20
0.3799999999971115
 30
0.0
 40
0.0075
  0
LWPOLYLINE
  5
93
330
2
100
AcDbEntity
  8
MSK-NS-SCRATCH
100
AcDbPolyline
 90
        8
 70
     1
 43
0.0
 10
0.5144173228342837
 20
0.7007150500560684
 10
0.2130000000000027
 20
0.7007150500560666
 10
0.2130000000000027
 20
0.4937150500310699
 10
0.0
 20
0.4937150500310701
 10
0.0
 20
1.013715050031067
 10
0.213000000000001
 20
1.013715050031072
 10
0.213000000000001
 20
0.8067150500060673
 10
0.5144173228342837
 20
0.8067150500060691
  0
LWPOLYLINE
  5
94
330
2
100
AcDbEntity
  8
lay1
100
AcDbPolyline
 90
        6
 70
     1
 43
0.0
 10
0.0019999999999882
 20
0.7482150500060705
 10
0.0419999999999874
 20
0.7462150500299352
 10
0.5629763779527473
 20
0.7462150500201763
 10
0.5629763779527473
 20
0.7612150500201769
 10
0.0419999999777119
 20
0.7612150500299375
 10
0.0019999999999882
 20
0.759215050006068
  0
CIRCLE
  5
95
330
2
100
AcDbEntity
  8
ZDRILL
100
AcDbCircle
 10
0.0999999999999872
 20
0.7207150500060707
 30
0.0000000000000001
 40
0.0075
  0
CIRCLE
  5
96
330
2
100
AcDbEntity
  8
ZDRILL
100
AcDbCircle
 10
0.0999999999999872
 20
0.7867150500060696
 30
0.0000000000000001
 40
0.0075
  0
CIRCLE
  5
97
330
2
100
AcDbEntity
  8
ZDRILL
100
AcDbCircle
 10
0.1099999999999923
 20
0.566215050031067
 30
0.0
 40
0.0405
  0
CIRCLE
  5
98
330
2
100
AcDbEntity
  8
ZDRILL
100
AcDbCircle
 10
0.0399999999999921
 20
0.6507150500560659
 30
0.0000000000000001
 40
0.0075
  0
CIRCLE
  5
99
330
2
100
AcDbEntity
  8
ZDRILL
100
AcDbCircle
 10
0.0399999999999956
 20
0.4507150500560666
 30
0.0000000000000001
 40
0.0075
  0
CIRCLE
  5
9A
330
2
100
AcDbEntity
  8
ZDRILL
100
AcDbCircle
 10
0.0399999999999921
 20
0.5507150500560663
 30
0.0000000000000001
 40
0.0075
  0
CIRCLE
  5
9B
330
2
100
AcDbEntity
  8
ZDRILL
100
AcDbCircle
 10
0.0399999999999921
 20
0.856715050006068
 30
0.0000000000000001
 40
0.0075
  0
CIRCLE
  5
9C
330
2
100
AcDbEntity
  8
ZDRILL
100
AcDbCircle
 10
0.0599999999999881
 20
0.7207150500060707
 30
0.0000000000000001
 40
0.0075
  0
CIRCLE
  5
9D
330
2
100
AcDbEntity
  8
ZDRILL
100
AcDbCircle
 10
0.0199999999999889
 20
0.7207150500060707
 30
0.0000000000000001
 40
0.0075
  0
CIRCLE
  5
9E
330
2
100
AcDbEntity
  8
ZDRILL
100
AcDbCircle
 10
0.0599999999999881
 20
0.7867150500060696
 30
0.0000000000000001
 40
0.0075
  0
CIRCLE
  5
9F
330
2
100
AcDbEntity
  8
ZDRILL
100
AcDbCircle
 10
0.0199999999999889
 20
0.7867150500060696
 30
0.0000000000000001
 40
0.0075
  0
CIRCLE
  5
A0
330
2
100
AcDbEntity
  8
ZDRILL
100
AcDbCircle
 10
0.3399999999999945
 20
0.6507150500560659
 30
0.0000000000000001
 40
0.0075
  0
CIRCLE
  5
A1
330
2
100
AcDbEntity
  8
ZDRILL
100
AcDbCircle
 10
0.2399999999999949
 20
0.6507150500560659
 30
0.0000000000000001
 40
0.0075
  0
CIRCLE
  5
A2
330
2
100
AcDbEntity
  8
ZDRILL
100
AcDbCircle
 10
0.1399999999999935
 20
0.6507150500560659
 30
0.0000000000000001
 40
0.0075
  0
CIRCLE
  5
A3
330
2
100
AcDbEntity
  8
ZDRILL
100
AcDbCircle
 10
0.2399999999999949
 20
0.4507150500560666
 30
0.0000000000000001
 40
0.0075
  0
CIRCLE
  5
A4
330
2
100
AcDbEntity
  8
ZDRILL
100
AcDbCircle
 10
0.2399999999999949
 20
0.5507150500560663
 30
0.0000000000000001
 40
0.0075
  0
CIRCLE
  5
A5
330
2
100
AcDbEntity
  8
ZDRILL
100
AcDbCircle
 10
0.1399999999999952
 20
0.4507150500560666
 30
0.0000000000000001
 40
0.0075
  0
CIRCLE
  5
A6
330
2
100
AcDbEntity
  8
ZDRILL
100
AcDbCircle
 10
0.3399999999999945
 20
0.4507150500560666
 30
0.0000000000000001
 40
0.0075
  0
CIRCLE
  5
A7
330
2
100
AcDbEntity
  8
ZDRILL
100
AcDbCircle
 10
0.3399999999999945
 20
0.5507150500560663
 30
0.0000000000000001
 40
0.0075
  0
CIRCLE
  5
A8
330
2
100
AcDbEntity
  8
ZDRILL
100
AcDbCircle
 10
0.2399999999999949
 20
0.856715050006068
 30
0.0000000000000001
 40
0.0075
  0
CIRCLE
  5
A9
330
2
100
AcDbEntity
  8
ZDRILL
100
AcDbCircle
 10
0.1399999999999935
 20
0.856715050006068
 30
0.0000000000000001
 40
0.0075
  0
CIRCLE
  5
AA
330
2
100
AcDbEntity
  8
ZDRILL
100
AcDbCircle
 10
0.1399999999999864
 20
0.7207150500060707
 30
0.0000000000000001
 40
0.0075
  0
CIRCLE
  5
AB
330
2
100
AcDbEntity
  8
ZDRILL
100
AcDbCircle
 10
0.1399999999999864
 20
0.7867150500060696
 30
0.0000000000000001
 40
0.0075
  0
CIRCLE
  5
AC
330
2
100
AcDbEntity
  8
ZDRILL
100
AcDbCircle
 10
0.1799999999999855
 20
0.7207150500060707
 30
0.0000000000000001
 40
0.0075
  0
CIRCLE
  5
AD
330
2
100
AcDbEntity
  8
ZDRILL
100
AcDbCircle
 10
0.1799999999999855
 20
0.7867150500060696
 30
0.0000000000000001
 40
0.0075
  0
CIRCLE
  5
AE
330
2
100
AcDbEntity
  8
ZDRILL
100
AcDbCircle
 10
0.2199999999999846
 20
0.7207150500060707
 30
0.0000000000000001
 40
0.0075
  0
CIRCLE
  5
AF
330
2
100
AcDbEntity
  8
ZDRILL
100
AcDbCircle
 10
0.2199999999999846
 20
0.7867150500060696
 30
0.0000000000000001
 40
0.0075
  0
CIRCLE
  5
B0
330
2
100
AcDbEntity
  8
ZDRILL
100
AcDbCircle
 10
0.3399999999999945
 20
0.856715050006068
 30
0.0000000000000001
 40
0.0075
  0
CIRCLE
  5
B1
330
2
100
AcDbEntity
  8
ZDRILL
100
AcDbCircle
 10
0.3399999999999821
 20
0.7867150500060696
 30
0.0000000000000001
 40
0.0075
  0
CIRCLE
  5
B2
330
2
100
AcDbEntity
  8
ZDRILL
100
AcDbCircle
 10
0.3399999999999821
 20
0.7207150500060707
 30
0.0000000000000001
 40
0.0075
  0
CIRCLE
  5
B3
330
2
100
AcDbEntity
  8
ZDRILL
100
AcDbCircle
 10
0.2599999999999838
 20
0.7207150500060707
 30
0.0000000000000001
 40
0.0075
  0
CIRCLE
  5
B4
330
2
100
AcDbEntity
  8
ZDRILL
100
AcDbCircle
 10
0.2999999999999829
 20
0.7207150500060707
 30
0.0000000000000001
 40
0.0075
  0
CIRCLE
  5
B5
330
2
100
AcDbEntity
  8
ZDRILL
100
AcDbCircle
 10
0.2599999999999838
 20
0.7867150500060696
 30
0.0000000000000001
 40
0.0075
  0
CIRCLE
  5
B6
330
2
100
AcDbEntity
  8
ZDRILL
100
AcDbCircle
 10
0.2999999999999829
 20
0.7867150500060696
 30
0.0000000000000001
 40
0.0075
  0
TEXT
  5
B7
330
2
100
AcDbEntity
  8
SLK-NS
100
AcDbText
 10
0.0547595436148072
 20
1.069418670774195
 30
0.0
 40
0.04
  1
RF
100
AcDbText
  0
TEXT
  5
B8
330
2
100
AcDbEntity
  8
SLK-NS
100
AcDbText
 10
0.0547595436148072
 20
1.127131669494343
 30
0.0
 40
0.04
  1
J1
100
AcDbText
  0
CIRCLE
  5
B9
330
2
100
AcDbEntity
  8
ZDRILL
100
AcDbCircle
 10
0.1099999999999923
 20
0.9412150500310669
 30
0.0
 40
0.0405
  0
CIRCLE
  5
BA
330
2
100
AcDbEntity
  8
ZDRILL
100
AcDbCircle
 10
0.0399999999999956
 20
1.056715050006067
 30
0.0000000000000001
 40
0.0075
  0
CIRCLE
  5
BB
330
2
100
AcDbEntity
  8
ZDRILL
100
AcDbCircle
 10
0.0399999999999921
 20
0.9567150500060677
 30
0.0000000000000001
 40
0.0075
  0
CIRCLE
  5
BC
330
2
100
AcDbEntity
  8
ZDRILL
100
AcDbCircle
 10
0.0399999999999956
 20
1.230186023455171
 30
0.0000000000000001
 40
0.0075
  0
CIRCLE
  5
BD
330
2
100
AcDbEntity
  8
ZDRILL
100
AcDbCircle
 10
0.0399999999999956
 20
1.156715050006067
 30
0.0000000000000001
 40
0.0075
  0
CIRCLE
  5
BE
330
2
100
AcDbEntity
  8
ZDRILL
100
AcDbCircle
 10
0.2399999999999949
 20
1.056715050006067
 30
0.0000000000000001
 40
0.0075
  0
CIRCLE
  5
BF
330
2
100
AcDbEntity
  8
ZDRILL
100
AcDbCircle
 10
0.2399999999999949
 20
0.9567150500060677
 30
0.0000000000000001
 40
0.0075
  0
CIRCLE
  5
C0
330
2
100
AcDbEntity
  8
ZDRILL
100
AcDbCircle
 10
0.1399999999999935
 20
1.056715050006067
 30
0.0000000000000001
 40
0.0075
  0
CIRCLE
  5
C1
330
2
100
AcDbEntity
  8
ZDRILL
100
AcDbCircle
 10
0.3399999999999945
 20
1.056715050006067
 30
0.0000000000000001
 40
0.0075
  0
CIRCLE
  5
C2
330
2
100
AcDbEntity
  8
ZDRILL
100
AcDbCircle
 10
0.3399999999999945
 20
0.9567150500060677
 30
0.0000000000000001
 40
0.0075
  0
CIRCLE
  5
C3
330
2
100
AcDbEntity
  8
ZDRILL
100
AcDbCircle
 10
0.2399999999999949
 20
1.230186023455171
 30
0.0000000000000001
 40
0.0075
  0
CIRCLE
  5
C4
330
2
100
AcDbEntity
  8
ZDRILL
100
AcDbCircle
 10
0.2399999999999949
 20
1.156715050006067
 30
0.0000000000000001
 40
0.0075
  0
CIRCLE
  5
C5
330
2
100
AcDbEntity
  8
ZDRILL
100
AcDbCircle
 10
0.1399999999999935
 20
1.230186023455171
 30
0.0000000000000001
 40
0.0075
  0
CIRCLE
  5
C6
330
2
100
AcDbEntity
  8
ZDRILL
100
AcDbCircle
 10
0.1399999999999935
 20
1.156715050006067
 30
0.0000000000000001
 40
0.0075
  0
CIRCLE
  5
C7
330
2
100
AcDbEntity
  8
ZDRILL
100
AcDbCircle
 10
0.3399999999999945
 20
1.230186023455171
 30
0.0000000000000001
 40
0.0075
  0
CIRCLE
  5
C8
330
2
100
AcDbEntity
  8
ZDRILL
100
AcDbCircle
 10
0.3399999999999945
 20
1.156715050006067
 30
0.0000000000000001
 40
0.0075
  0
TEXT
  5
C9
330
2
100
AcDbEntity
  8
SLK-NS
100
AcDbText
 10
0.4614381380594637
 20
0.8460594461669757
 30
0.0
 40
0.04
  1
U1
100
AcDbText
  0
LWPOLYLINE
  5
CA
330
2
100
AcDbEntity
  8
MSK-NS-SCRATCH
100
AcDbPolyline
 90
        4
 70
     1
 43
0.0
 10
0.6269370078740053
 20
0.6689748925503607
 10
0.6269370078740053
 20
0.7015654437314623
 10
0.6427480314960619
 20
0.7015654437314623
 10
0.6427480314960619
 20
0.6689748925503607
  0
LWPOLYLINE
  5
CB
330
2
100
AcDbEntity
  8
MSK-NS-SCRATCH
100
AcDbPolyline
 90
        4
 70
     1
 43
0.0
 10
0.6269370078740053
 20
0.8581402468818119
 10
0.6269370078740053
 20
0.8255496957007103
 10
0.6427480314960619
 20
0.8255496957007103
 10
0.6427480314960619
 20
0.8581402468818119
  0
CIRCLE
  5
CC
330
2
100
AcDbEntity
  8
ZDRILL
100
AcDbCircle
 10
0.6362353674143382
 20
0.567783918574847
 30
0.0
 40
0.0075
  0
CIRCLE
  5
CD
330
2
100
AcDbEntity
  8
ZDRILL
100
AcDbCircle
 10
0.6362353674143382
 20
0.59915608529974
 30
0.0
 40
0.0075
  0
LWPOLYLINE
  5
CE
330
2
100
AcDbEntity
  8
SCRATCH1
100
AcDbPolyline
 90
        4
 70
     1
 43
0.0
 10
0.6486220472440607
 20
0.8137701681412696
 10
0.6407480314961021
 20
0.8137701681412696
 10
0.6407480314961021
 20
0.850108750818423
 10
0.6486220472440607
 20
0.850108750818423
  0
LWPOLYLINE
  5
D0
330
2
100
AcDbEntity
  8
MSK-NS-SCRATCH
100
AcDbPolyline
 90
        8
 70
     1
 43
0.0
 10
0.5727874015748001
 20
0.7222189870389304
 42
0.4142135623730951
 10
0.5836614173228299
 20
0.7113449712909006
 10
0.6663385826771631
 20
0.7113449712908988
 42
0.4142135623730951
 10
0.6772125984251929
 20
0.7222189870389304
 10
0.6772125984251929
 20
0.8048961523932565
 42
0.4142135623730951
 10
0.6663385826771631
 20
0.8157701681412881
 10
0.5836614173228299
 20
0.8157701681413005
 42
0.414213562373095
 10
0.5727874015748001
 20
0.8048961523932565
  0
CIRCLE
  5
D1
330
2
100
AcDbEntity
  8
ZDRILL
100
AcDbCircle
 10
0.5399999999999939
 20
0.6507150500560659
 30
0.0000000000000001
 40
0.0075
  0
CIRCLE
  5
D2
330
2
100
AcDbEntity
  8
ZDRILL
100
AcDbCircle
 10
0.4399999999999942
 20
0.6507150500560659
 30
0.0000000000000001
 40
0.0075
  0
CIRCLE
  5
D3
330
2
100
AcDbEntity
  8
ZDRILL
100
AcDbCircle
 10
0.4399999999999942
 20
0.5507150500560663
 30
0.0000000000000001
 40
0.0075
  0
CIRCLE
  5
D4
330
2
100
AcDbEntity
  8
ZDRILL
100
AcDbCircle
 10
0.49774043804128
 20
0.499999999997109
 30
0.0
 40
0.0075
  0
CIRCLE
  5
D5
330
2
100
AcDbEntity
  8
ZDRILL
100
AcDbCircle
 10
0.4648561806195808
 20
0.4599999999971099
 30
0.0
 40
0.0075
  0
CIRCLE
  5
D6
330
2
100
AcDbEntity
  8
ZDRILL
100
AcDbCircle
 10
0.4319719231978834
 20
0.4199999999971107
 30
0.0
 40
0.0075
  0
CIRCLE
  5
D7
330
2
100
AcDbEntity
  8
ZDRILL
100
AcDbCircle
 10
0.6249999999999983
 20
0.4507150500560666
 30
0.0000000000000001
 40
0.0075
  0
CIRCLE
  5
D8
330
2
100
AcDbEntity
  8
ZDRILL
100
AcDbCircle
 10
0.5735728583752984
 20
0.6199999999971065
 30
0.0
 40
0.0075
  0
CIRCLE
  5
D9
330
2
100
AcDbEntity
  8
ZDRILL
100
AcDbCircle
 10
0.5575175786831928
 20
0.5799999999971073
 30
0.0
 40
0.0075
  0
CIRCLE
  5
DA
330
2
100
AcDbEntity
  8
ZDRILL
100
AcDbCircle
 10
0.6108561678539495
 20
0.5399999999971082
 30
0.0
 40
0.0075
  0
CIRCLE
  5
DB
330
2
100
AcDbEntity
  8
ZDRILL
100
AcDbCircle
 10
0.583180719862785
 20
0.499999999997109
 30
0.0
 40
0.0075
  0
CIRCLE
  5
DC
330
2
100
AcDbEntity
  8
ZDRILL
100
AcDbCircle
 10
0.5502964624410858
 20
0.4599999999971099
 30
0.0
 40
0.0075
  0
CIRCLE
  5
DD
330
2
100
AcDbEntity
  8
ZDRILL
100
AcDbCircle
 10
0.5306246954629757
 20
0.5399999999971082
 30
0.0
 40
0.0075
  0
CIRCLE
  5
DE
330
2
100
AcDbEntity
  8
ZDRILL
100
AcDbCircle
 10
0.5174122050193884
 20
0.4199999999971107
 30
0.0
 40
0.0075
  0
CIRCLE
  5
DF
330
2
100
AcDbEntity
  8
SLK-NS
100
AcDbCircle
 10
0.5113561480968656
 20
0.8272327768672482
 30
0.0
 40
0.0125195524753247
  0
CIRCLE
  5
E0
330
2
100
AcDbEntity
  8
ZDRILL
100
AcDbCircle
 10
0.4999999999999787
 20
0.7867150500060696
 30
0.0000000000000001
 40
0.0075
  0
CIRCLE
  5
E1
330
2
100
AcDbEntity
  8
ZDRILL
100
AcDbCircle
 10
0.4999999999999787
 20
0.7207150500060707
 30
0.0000000000000001
 40
0.0075
  0
CIRCLE
  5
E2
330
2
100
AcDbEntity
  8
ZDRILL
100
AcDbCircle
 10
0.4399999999999942
 20
0.856715050006068
 30
0.0000000000000001
 40
0.0075
  0
CIRCLE
  5
E3
330
2
100
AcDbEntity
  8
ZDRILL
100
AcDbCircle
 10
0.4199999999999804
 20
0.7867150500060696
 30
0.0000000000000001
 40
0.0075
  0
CIRCLE
  5
E4
330
2
100
AcDbEntity
  8
ZDRILL
100
AcDbCircle
 10
0.4199999999999804
 20
0.7207150500060707
 30
0.0000000000000001
 40
0.0075
  0
CIRCLE
  5
E5
330
2
100
AcDbEntity
  8
ZDRILL
100
AcDbCircle
 10
0.3799999999999812
 20
0.7867150500060696
 30
0.0000000000000001
 40
0.0075
  0
CIRCLE
  5
E6
330
2
100
AcDbEntity
  8
ZDRILL
100
AcDbCircle
 10
0.3799999999999812
 20
0.7207150500060707
 30
0.0000000000000001
 40
0.0075
  0
CIRCLE
  5
E7
330
2
100
AcDbEntity
  8
ZDRILL
100
AcDbCircle
 10
0.4599999999999796
 20
0.7867150500060696
 30
0.0000000000000001
 40
0.0075
  0
CIRCLE
  5
E8
330
2
100
AcDbEntity
  8
ZDRILL
100
AcDbCircle
 10
0.4599999999999796
 20
0.7207150500060707
 30
0.0000000000000001
 40
0.0075
  0
LWPOLYLINE
  5
E9
330
2
100
AcDbEntity
  8
MSK-NS-SCRATCH
100
AcDbPolyline
 90
        5
 70
     1
 43
0.0
 10
0.5678818897637683
 20
0.6689748925503607
 10
0.5678818897637683
 20
0.6995654437314616
 10
0.5698818897637708
 20
0.7015654437314623
 10
0.5836929133858249
 20
0.7015654437314623
 10
0.5836929133858249
 20
0.6689748925503607
  0
LWPOLYLINE
  5
EA
330
2
100
AcDbEntity
  8
MSK-NS-SCRATCH
100
AcDbPolyline
 90
        4
 70
     1
 43
0.0
 10
0.5875669291338426
 20
0.6689748925503607
 10
0.5875669291338426
 20
0.7015654437314623
 10
0.6033779527558992
 20
0.7015654437314623
 10
0.6033779527558992
 20
0.6689748925503607
  0
LWPOLYLINE
  5
EB
330
2
100
AcDbEntity
  8
MSK-NS-SCRATCH
100
AcDbPolyline
 90
        4
 70
     1
 43
0.0
 10
0.607251968503924
 20
0.6689748925503607
 10
0.607251968503924
 20
0.7015654437314623
 10
0.6230629921259805
 20
0.7015654437314623
 10
0.6230629921259805
 20
0.6689748925503607
  0
LWPOLYLINE
  5
EC
330
2
100
AcDbEntity
  8
MSK-NS-SCRATCH
100
AcDbPolyline
 90
        4
 70
     1
 43
0.0
 10
0.607251968503924
 20
0.8581402468818119
 10
0.607251968503924
 20
0.8255496957007103
 10
0.6230629921259805
 20
0.8255496957007103
 10
0.6230629921259805
 20
0.8581402468818119
  0
LWPOLYLINE
  5
ED
330
2
100
AcDbEntity
  8
MSK-NS-SCRATCH
100
AcDbPolyline
 90
        4
 70
     1
 43
0.0
 10
0.5875669291338426
 20
0.8581402468818119
 10
0.5875669291338426
 20
0.8255496957007103
 10
0.6033779527558992
 20
0.8255496957007103
 10
0.6033779527558992
 20
0.8581402468818119
  0
LWPOLYLINE
  5
EE
330
2
100
AcDbEntity
  8
MSK-NS-SCRATCH
100
AcDbPolyline
 90
        5
 70
     1
 43
0.0
 10
0.5678818897637683
 20
0.8581402468818119
 10
0.5678818897637683
 20
0.827549695700711
 10
0.5698818897637708
 20
0.8255496957007103
 10
0.5836929133858249
 20
0.8255496957007103
 10
0.5836929133858249
 20
0.8581402468818119
  0
LWPOLYLINE
  5
EF
330
2
100
AcDbEntity
  8
MSK-NS-SCRATCH
100
AcDbPolyline
 90
        5
 70
     1
 43
0.0
 10
0.5304173228342873
 20
0.8206756799523216
 10
0.5610078740153935
 20
0.8206756799523216
 10
0.5630078740153959
 20
0.8186756799523209
 10
0.5630078740153888
 20
0.8048646563302614
 10
0.5304173228342873
 20
0.8048646563302614
  0
LWPOLYLINE
  5
F0
330
2
100
AcDbEntity
  8
MSK-NS-SCRATCH
100
AcDbPolyline
 90
        4
 70
     1
 43
0.0
 10
0.5304173228342873
 20
0.8009906405822473
 10
0.5630078740153888
 20
0.8009906405822473
 10
0.5630078740153888
 20
0.7851796169601873
 10
0.5304173228342873
 20
0.7851796169601873
  0
LWPOLYLINE
  5
F1
330
2
100
AcDbEntity
  8
MSK-NS-SCRATCH
100
AcDbPolyline
 90
        4
 70
     1
 43
0.0
 10
0.5304173228342873
 20
0.7813056012121731
 10
0.5630078740153888
 20
0.7813056012121731
 10
0.5630078740153888
 20
0.765494577590113
 10
0.5304173228342873
 20
0.765494577590113
  0
LWPOLYLINE
  5
F2
330
2
100
AcDbEntity
  8
MSK-NS-SCRATCH
100
AcDbPolyline
 90
        4
 70
     1
 43
0.0
 10
0.5304173228342873
 20
0.7616205618420846
 10
0.5630078740153888
 20
0.7616205618420846
 10
0.5630078740153888
 20
0.7458095382200245
 10
0.5304173228342873
 20
0.7458095382200245
  0
LWPOLYLINE
  5
F3
330
2
100
AcDbEntity
  8
MSK-NS-SCRATCH
100
AcDbPolyline
 90
        4
 70
     1
 43
0.0
 10
0.5304173228342873
 20
0.7419355224720104
 10
0.5630078740153888
 20
0.7419355224720104
 10
0.5630078740153888
 20
0.7261244988499503
 10
0.5304173228342873
 20
0.7261244988499503
  0
LWPOLYLINE
  5
F4
330
2
100
AcDbEntity
  8
MSK-NS-SCRATCH
100
AcDbPolyline
 90
        5
 70
     1
 43
0.0
 10
0.5304173228342873
 20
0.7222504831019361
 10
0.5630078740153888
 20
0.7222504831019361
 10
0.5630078740153959
 20
0.7084394594798767
 10
0.5610078740153935
 20
0.706439459479876
 10
0.5304173228342873
 20
0.706439459479876
  0
CIRCLE
  5
F5
330
2
100
AcDbEntity
  8
ZDRILL
100
AcDbCircle
 10
0.5749999999999993
 20
0.8705245838829966
 30
0.0000000000000001
 40
0.0075
  0
CIRCLE
  5
F6
330
2
100
AcDbEntity
  8
ZDRILL
100
AcDbCircle
 10
0.625
 20
0.8705245838829966
 30
0.0000000000000001
 40
0.0075
  0
CIRCLE
  5
F7
330
2
100
AcDbEntity
  8
ZDRILL
100
AcDbCircle
 10
0.5272535071124836
 20
0.7867150500060696
 30
0.0000000000000001
 40
0.0075
  0
CIRCLE
  5
F8
330
2
100
AcDbEntity
  8
ZDRILL
100
AcDbCircle
 10
0.5272535071124836
 20
0.7207150500060707
 30
0.0000000000000001
 40
0.0075
  0
CIRCLE
  5
F9
330
2
100
AcDbEntity
  8
ZDRILL
100
AcDbCircle
 10
0.5811934314426744
 20
0.6599999999971056
 30
0.0
 40
0.0075
  0
LWPOLYLINE
  5
FA
330
2
100
AcDbEntity
  8
SCRATCH1
100
AcDbPolyline
 90
        4
 70
     1
 43
0.0
 10
0.6289370078739794
 20
0.8137701681412696
 10
0.6210629921260207
 20
0.8137701681412696
 10
0.6210629921260207
 20
0.850108750818423
 10
0.6289370078739794
 20
0.850108750818423
  0
LWPOLYLINE
  5
FB
330
2
100
AcDbEntity
  8
SCRATCH1
100
AcDbPolyline
 90
        4
 70
     1
 43
0.0
 10
0.609251968503898
 20
0.8137701681412696
 10
0.6013779527559393
 20
0.8137701681412696
 10
0.6013779527559393
 20
0.850108750818423
 10
0.609251968503898
 20
0.850108750818423
  0
LWPOLYLINE
  5
FC
330
2
100
AcDbEntity
  8
SCRATCH1
100
AcDbPolyline
 90
        4
 70
     1
 43
0.0
 10
0.5895669291338237
 20
0.8137701681412696
 10
0.5816929133858651
 20
0.8137701681412696
 10
0.5816929133858651
 20
0.850108750818423
 10
0.5895669291338237
 20
0.850108750818423
  0
LWPOLYLINE
  5
FD
330
2
100
AcDbEntity
  8
SCRATCH1
100
AcDbPolyline
 90
        4
 70
     1
 43
0.0
 10
0.5747874015748025
 20
0.8068646563302213
 10
0.5747874015748025
 20
0.7989906405822627
 10
0.5384488188976491
 20
0.7989906405822627
 10
0.5384488188976491
 20
0.8068646563302213
  0
LWPOLYLINE
  5
FE
330
2
100
AcDbEntity
  8
SCRATCH1
100
AcDbPolyline
 90
        6
 70
     1
 43
0.0
 10
0.5698818897637353
 20
0.8186756799523227
 10
0.5698818897637353
 20
0.850108750818423
 10
0.5620078740157766
 20
0.850108750818423
 10
0.5620078740157766
 20
0.8265496957002813
 10
0.538448818897642
 20
0.8265496957002813
 10
0.538448818897642
 20
0.8186756799523227
  0
LWPOLYLINE
  5
FF
330
2
100
AcDbEntity
  8
SCRATCH1
100
AcDbPolyline
 90
        6
 70
     1
 43
0.0
 10
0.5698818897637353
 20
0.7084394594798498
 10
0.5698818897637353
 20
0.6770063886137497
 10
0.5620078740157766
 20
0.6770063886137497
 10
0.5620078740157766
 20
0.7005654437318912
 10
0.538448818897642
 20
0.7005654437318914
 10
0.538448818897642
 20
0.70843945947985
  0
LWPOLYLINE
  5
100
330
2
100
AcDbEntity
  8
SCRATCH1
100
AcDbPolyline
 90
        4
 70
     1
 43
0.0
 10
0.5747874015748025
 20
0.7871796169601471
 10
0.5747874015748025
 20
0.7793056012121884
 10
0.5384488188976491
 20
0.7793056012121884
 10
0.5384488188976491
 20
0.7871796169601471
  0
LWPOLYLINE
  5
101
330
2
100
AcDbEntity
  8
SCRATCH1
100
AcDbPolyline
 90
        4
 70
     1
 43
0.0
 10
0.5747874015748025
 20
0.7281244988499101
 10
0.5747874015748025
 20
0.7202504831019514
 10
0.5384488188976491
 20
0.7202504831019514
 10
0.5384488188976491
 20
0.7281244988499101
  0
LWPOLYLINE
  5
102
330
2
100
AcDbEntity
  8
SCRATCH1
100
AcDbPolyline
 90
        4
 70
     1
 43
0.0
 10
0.5895669291338237
 20
0.7133449712909031
 10
0.5816929133858651
 20
0.7133449712909031
 10
0.5816929133858651
 20
0.6770063886137497
 10
0.5895669291338237
 20
0.6770063886137497
  0
CIRCLE
  5
103
330
2
100
AcDbEntity
  8
ZDRILL
100
AcDbCircle
 10
0.538459295259365
 20
0.6806773668898689
 30
0.0
 40
0.0075
  0
CIRCLE
  5
104
330
2
100
AcDbEntity
  8
ZDRILL
100
AcDbCircle
 10
0.5435216959027756
 20
0.8463913257876205
 30
0.0000000000000001
 40
0.0075
  0
CIRCLE
  5
105
330
2
100
AcDbEntity
  8
ZDRILL
100
AcDbCircle
 10
0.625
 20
0.7935575697160929
 30
0.0
 40
0.0075
  0
CIRCLE
  5
106
330
2
100
AcDbEntity
  8
ZDRILL
100
AcDbCircle
 10
0.5949999999999989
 20
0.7935575697160929
 30
0.0
 40
0.0075
  0
CIRCLE
  5
107
330
2
100
AcDbEntity
  8
ZDRILL
100
AcDbCircle
 10
0.5949999999999989
 20
0.7335575697161083
 30
0.0
 40
0.0075
  0
CIRCLE
  5
108
330
2
100
AcDbEntity
  8
ZDRILL
100
AcDbCircle
 10
0.625
 20
0.7335575697161012
 30
0.0
 40
0.0075
  0
CIRCLE
  5
109
330
2
100
AcDbEntity
  8
ZDRILL
100
AcDbCircle
 10
0.625
 20
0.7635575697160935
 30
0.0
 40
0.0075
  0
CIRCLE
  5
10A
330
2
100
AcDbEntity
  8
ZDRILL
100
AcDbCircle
 10
0.5949999999999989
 20
0.7635575697161006
 30
0.0
 40
0.0075
  0
CIRCLE
  5
10B
330
2
100
AcDbEntity
  8
ZDRILL
100
AcDbCircle
 10
0.8100000000000058
 20
0.6507150500560659
 30
0.0000000000000001
 40
0.0075
  0
CIRCLE
  5
10C
330
2
100
AcDbEntity
  8
ZDRILL
100
AcDbCircle
 10
0.7791546017157352
 20
0.499999999997109
 30
0.0
 40
0.0075
  0
CIRCLE
  5
10D
330
2
100
AcDbEntity
  8
ZDRILL
100
AcDbCircle
 10
0.6988577806824808
 20
0.6199999999971065
 30
0.0
 40
0.0075
  0
CIRCLE
  5
10E
330
2
100
AcDbEntity
  8
ZDRILL
100
AcDbCircle
 10
0.7170072054466435
 20
0.5799999999971075
 30
0.0
 40
0.0075
  0
CIRCLE
  5
10F
330
2
100
AcDbEntity
  8
ZDRILL
100
AcDbCircle
 10
0.746270344294036
 20
0.5399999999971082
 30
0.0
 40
0.0075
  0
CIRCLE
  5
110
330
2
100
AcDbEntity
  8
ZDRILL
100
AcDbCircle
 10
0.7594828347376251
 20
0.4199999999971107
 30
0.0
 40
0.0075
  0
CIRCLE
  5
111
330
2
100
AcDbEntity
  8
ZDRILL
100
AcDbCircle
 10
0.7265985773159276
 20
0.4599999999971099
 30
0.0
 40
0.0075
  0
CIRCLE
  5
112
330
2
100
AcDbEntity
  8
ZDRILL
100
AcDbCircle
 10
0.6937143198942302
 20
0.499999999997109
 30
0.0
 40
0.0075
  0
CIRCLE
  5
113
330
2
100
AcDbEntity
  8
ZDRILL
100
AcDbCircle
 10
0.6640536347347404
 20
0.5399999999971082
 30
0.0
 40
0.0075
  0
CIRCLE
  5
114
330
2
100
AcDbEntity
  8
ZDRILL
100
AcDbCircle
 10
0.8100000000000058
 20
0.5507150500560663
 30
0.0000000000000001
 40
0.0075
  0
CIRCLE
  5
115
330
2
100
AcDbEntity
  8
ZDRILL
100
AcDbCircle
 10
0.8449231165591299
 20
0.4199999999971107
 30
0.0
 40
0.0075
  0
CIRCLE
  5
116
330
2
100
AcDbEntity
  8
ZDRILL
100
AcDbCircle
 10
0.8120388591374343
 20
0.4599999999971099
 30
0.0
 40
0.0075
  0
LWPOLYLINE
  5
117
330
2
100
AcDbEntity
  8
MSK-NS-SCRATCH
100
AcDbPolyline
 90
        4
 70
     1
 43
0.0
 10
0.6466220472440796
 20
0.6689748925503607
 10
0.6466220472440796
 20
0.7015654437314623
 10
0.6624330708661362
 20
0.7015654437314623
 10
0.6624330708661362
 20
0.6689748925503607
  0
LWPOLYLINE
  5
118
330
2
100
AcDbEntity
  8
MSK-NS-SCRATCH
100
AcDbPolyline
 90
        5
 70
     1
 43
0.0
 10
0.666307086614161
 20
0.6689748925503607
 10
0.666307086614161
 20
0.7015654437314623
 10
0.6801181102362151
 20
0.7015654437314623
 10
0.6821181102362175
 20
0.6995654437314616
 10
0.6821181102362175
 20
0.6689748925503607
  0
LWPOLYLINE
  5
119
330
2
100
AcDbEntity
  8
MSK-NS-SCRATCH
100
AcDbPolyline
 90
        4
 70
     1
 43
0.0
 10
0.6466220472440796
 20
0.8581402468818119
 10
0.6466220472440796
 20
0.8255496957007103
 10
0.6624330708661362
 20
0.8255496957007103
 10
0.6624330708661362
 20
0.8581402468818119
  0
LWPOLYLINE
  5
11A
330
2
100
AcDbEntity
  8
MSK-NS-SCRATCH
100
AcDbPolyline
 90
        5
 70
     1
 43
0.0
 10
0.666307086614161
 20
0.8581402468818119
 10
0.666307086614161
 20
0.8255496957007103
 10
0.6801181102362151
 20
0.8255496957007103
 10
0.6821181102362175
 20
0.827549695700711
 10
0.6821181102362175
 20
0.8581402468818119
  0
LWPOLYLINE
  5
11B
330
2
100
AcDbEntity
  8
MSK-NS-SCRATCH
100
AcDbPolyline
 90
        5
 70
     1
 43
0.0
 10
0.7195826771657128
 20
0.8206756799523358
 10
0.6889921259846137
 20
0.8206756799523375
 10
0.6869921259846113
 20
0.8186756799523369
 10
0.6869921259846113
 20
0.8048646563302757
 10
0.7195826771657128
 20
0.8048646563302757
  0
LWPOLYLINE
  5
11C
330
2
100
AcDbEntity
  8
MSK-NS-SCRATCH
100
AcDbPolyline
 90
        4
 70
     1
 43
0.0
 10
0.7195826771657128
 20
0.8009906405822473
 10
0.6869921259846113
 20
0.8009906405822473
 10
0.6869921259846113
 20
0.7851796169601873
 10
0.7195826771657128
 20
0.7851796169601873
  0
LWPOLYLINE
  5
11D
330
2
100
AcDbEntity
  8
MSK-NS-SCRATCH
100
AcDbPolyline
 90
        4
 70
     1
 43
0.0
 10
0.7195826771657128
 20
0.7616205618420846
 10
0.6869921259846113
 20
0.7616205618420846
 10
0.6869921259846113
 20
0.7458095382200245
 10
0.7195826771657128
 20
0.7458095382200245
  0
LWPOLYLINE
  5
11E
330
2
100
AcDbEntity
  8
MSK-NS-SCRATCH
100
AcDbPolyline
 90
        4
 70
     1
 43
0.0
 10
0.7195826771657128
 20
0.7813056012121731
 10
0.6869921259846113
 20
0.7813056012121731
 10
0.6869921259846113
 20
0.765494577590113
 10
0.7195826771657128
 20
0.765494577590113
  0
LWPOLYLINE
  5
11F
330
2
100
AcDbEntity
  8
MSK-NS-SCRATCH
100
AcDbPolyline
 90
        5
 70
     1
 43
0.0
 10
0.7195826771657128
 20
0.7222504831019361
 10
0.6869921259846113
 20
0.7222504831019361
 10
0.6869921259846113
 20
0.7084394594798767
 10
0.6889921259846137
 20
0.706439459479876
 10
0.7195826771657128
 20
0.706439459479876
  0
LWPOLYLINE
  5
120
330
2
100
AcDbEntity
  8
MSK-NS-SCRATCH
100
AcDbPolyline
 90
        4
 70
     1
 43
0.0
 10
0.7195826771657128
 20
0.7419355224720104
 10
0.6869921259846113
 20
0.7419355224720104
 10
0.6869921259846113
 20
0.7261244988499503
 10
0.7195826771657128
 20
0.7261244988499503
  0
CIRCLE
  5
121
330
2
100
AcDbEntity
  8
ZDRILL
100
AcDbCircle
 10
0.6750000000000007
 20
0.8705245838829966
 30
0.0000000000000001
 40
0.0075
  0
CIRCLE
  5
122
330
2
100
AcDbEntity
  8
ZDRILL
100
AcDbCircle
 10
0.7227464928875165
 20
0.7867150500060696
 30
0.0000000000000001
 40
0.0075
  0
CIRCLE
  5
123
330
2
100
AcDbEntity
  8
ZDRILL
100
AcDbCircle
 10
0.7227464928875165
 20
0.7207150500060707
 30
0.0000000000000001
 40
0.0075
  0
CIRCLE
  5
124
330
2
100
AcDbEntity
  8
ZDRILL
100
AcDbCircle
 10
0.7500000000000214
 20
0.7207150500060707
 30
0.0000000000000001
 40
0.0075
  0
CIRCLE
  5
125
330
2
100
AcDbEntity
  8
ZDRILL
100
AcDbCircle
 10
0.7500000000000214
 20
0.7867150500060696
 30
0.0000000000000001
 40
0.0075
  0
CIRCLE
  5
126
330
2
100
AcDbEntity
  8
ZDRILL
100
AcDbCircle
 10
0.6895014386547409
 20
0.6599999999971058
 30
0.0
 40
0.0075
  0
LWPOLYLINE
  5
127
330
2
100
AcDbEntity
  8
SCRATCH1
100
AcDbPolyline
 90
        4
 70
     1
 43
0.0
 10
0.668307086614135
 20
0.8137701681412696
 10
0.6604330708661763
 20
0.8137701681412696
 10
0.6604330708661763
 20
0.850108750818423
 10
0.668307086614135
 20
0.850108750818423
  0
LWPOLYLINE
  5
128
330
2
100
AcDbEntity
  8
SCRATCH1
100
AcDbPolyline
 90
        4
 70
     1
 43
0.0
 10
0.6752125984251976
 20
0.8068646563302213
 10
0.6752125984251976
 20
0.7989906405822627
 10
0.711551181102351
 20
0.7989906405822627
 10
0.711551181102351
 20
0.8068646563302213
  0
LWPOLYLINE
  5
129
330
2
100
AcDbEntity
  8
SCRATCH1
100
AcDbPolyline
 90
        6
 70
     1
 43
0.0
 10
0.6801181102362577
 20
0.8186756799523227
 10
0.6801181102362577
 20
0.850108750818423
 10
0.6879921259842164
 20
0.850108750818423
 10
0.6879921259842164
 20
0.8265496957002813
 10
0.711551181102351
 20
0.8265496957002813
 10
0.711551181102351
 20
0.8186756799523227
  0
LWPOLYLINE
  5
12A
330
2
100
AcDbEntity
  8
SCRATCH1
100
AcDbPolyline
 90
        6
 70
     1
 43
0.0
 10
0.6801181102362577
 20
0.7084394594798498
 10
0.6801181102362577
 20
0.6770063886137497
 10
0.6879921259842164
 20
0.6770063886137497
 10
0.6879921259842164
 20
0.7005654437318912
 10
0.711551181102351
 20
0.7005654437318914
 10
0.711551181102351
 20
0.70843945947985
  0
LWPOLYLINE
  5
12B
330
2
100
AcDbEntity
  8
SCRATCH1
100
AcDbPolyline
 90
        4
 70
     1
 43
0.0
 10
0.6752125984251976
 20
0.7871796169601471
 10
0.6752125984251976
 20
0.7793056012121884
 10
0.711551181102351
 20
0.7793056012121884
 10
0.711551181102351
 20
0.7871796169601471
  0
LWPOLYLINE
  5
12C
330
2
100
AcDbEntity
  8
MSK-NS-SCRATCH
100
AcDbPolyline
 90
        4
 70
     1
 43
0.0
 10
0.7155826771657133
 20
0.8009906405822473
 10
0.6829921259846117
 20
0.8009906405822473
 10
0.6829921259846117
 20
0.7851796169601873
 10
0.7155826771657133
 20
0.7851796169601873
  0
LWPOLYLINE
  5
12D
330
2
100
AcDbEntity
  8
SCRATCH1
100
AcDbPolyline
 90
        4
 70
     1
 43
0.0
 10
0.6752125984251976
 20
0.7281244988499243
 10
0.6752125984251976
 20
0.7202504831019656
 10
0.711551181102351
 20
0.7202504831019656
 10
0.711551181102351
 20
0.7281244988499243
  0
CIRCLE
  5
12E
330
2
100
AcDbEntity
  8
ZDRILL
100
AcDbCircle
 10
0.6550000000000012
 20
0.7935575697160929
 30
0.0
 40
0.0075
  0
CIRCLE
  5
12F
330
2
100
AcDbEntity
  8
ZDRILL
100
AcDbCircle
 10
0.6550000000000012
 20
0.7335575697161012
 30
0.0
 40
0.0075
  0
CIRCLE
  5
130
330
2
100
AcDbEntity
  8
ZDRILL
100
AcDbCircle
 10
0.6550000000000012
 20
0.7635575697160935
 30
0.0
 40
0.0075
  0
CIRCLE
  5
131
330
2
100
AcDbEntity
  8
ZDRILL
100
AcDbCircle
 10
0.7115407047406351
 20
0.6806773668898689
 30
0.0
 40
0.0075
  0
CIRCLE
  5
132
330
2
100
AcDbEntity
  8
ZDRILL
100
AcDbCircle
 10
0.7064783040972245
 20
0.8463913257876205
 30
0.0000000000000001
 40
0.0075
  0
CIRCLE
  5
133
330
2
100
AcDbEntity
  8
ZDRILL
100
AcDbCircle
 10
0.8100000000000058
 20
0.856715050006068
 30
0.0000000000000001
 40
0.0075
  0
CIRCLE
  5
134
330
2
100
AcDbEntity
  8
ZDRILL
100
AcDbCircle
 10
0.7900000000000205
 20
0.7867150500060696
 30
0.0000000000000001
 40
0.0075
  0
CIRCLE
  5
135
330
2
100
AcDbEntity
  8
ZDRILL
100
AcDbCircle
 10
0.7900000000000205
 20
0.7207150500060707
 30
0.0000000000000001
 40
0.0075
  0
CIRCLE
  5
136
330
2
100
AcDbEntity
  8
ZDRILL
100
AcDbCircle
 10
0.8700000000000187
 20
0.7867150500060696
 30
0.0000000000000001
 40
0.0075
  0
CIRCLE
  5
137
330
2
100
AcDbEntity
  8
ZDRILL
100
AcDbCircle
 10
0.8300000000000196
 20
0.7867150500060696
 30
0.0000000000000001
 40
0.0075
  0
CIRCLE
  5
138
330
2
100
AcDbEntity
  8
ZDRILL
100
AcDbCircle
 10
0.8700000000000187
 20
0.7207150500060707
 30
0.0000000000000001
 40
0.0075
  0
CIRCLE
  5
139
330
2
100
AcDbEntity
  8
ZDRILL
100
AcDbCircle
 10
0.8300000000000196
 20
0.7207150500060707
 30
0.0000000000000001
 40
0.0075
  0
TEXT
  5
13A
330
2
100
AcDbEntity
  8
SLK-NS
100
AcDbText
 10
0.5374953171448436
 20
1.111574123872982
 30
0.0000000000000001
 40
0.0573473444161733
  1
Custom
100
AcDbText
  0
TEXT
  5
13B
330
2
100
AcDbEntity
  8
SLK-NS
100
AcDbText
 10
0.4080044479104075
 20
0.9449131126341061
 30
-0.0000000000000001
 40
0.035
  1
100436 REV 1
100
AcDbText
  0
LWPOLYLINE
  5
13C
330
2
100
AcDbEntity
  8
SLK-NS
100
AcDbPolyline
 90
        4
 70
     1
 43
0.0
 10
0.4636673681276769
 20
1.119023241132158
 10
0.5075078100578719
 20
1.162863683062411
 10
0.5075078100578719
 20
1.119023241132158
 10
0.4636673681276769
 20
1.075182799201904
  0
LWPOLYLINE
  5
13D
330
2
100
AcDbEntity
  8
SLK-NS
100
AcDbPolyline
 90
        4
 70
     1
 43
0.0
 10
0.4559308195516217
 20
1.075182799201904
 10
0.4559308195516217
 20
1.119023241132158
 10
0.4340105985865251
 20
1.140943462097284
 10
0.4120903776214267
 20
1.119023241132158
  0
LWPOLYLINE
  5
13E
330
2
100
AcDbEntity
  8
SLK-NS
100
AcDbPolyline
 90
        4
 70
     1
 43
0.0
 10
0.5075078100578719
 20
1.106128993505596
 10
0.4765616157541217
 20
1.075182799201904
 10
0.4765616157541217
 20
1.012000985831837
 10
0.5075078100578719
 20
1.042947180135528
  0
CIRCLE
  5
13F
330
2
100
AcDbEntity
  8
ZDRILL
100
AcDbCircle
 10
0.5161988691381119
 20
1.036080940768806
 30
0.0000000000000002
 40
0.01125
  0
LWPOLYLINE
  5
140
330
2
100
AcDbEntity
  8
SLK-NS
100
AcDbPolyline
 90
        4
 70
     1
 43
0.0
 10
0.4120903776214267
 20
1.106128993505596
 10
0.4430365719251768
 20
1.075182799201904
 10
0.4430365719251768
 20
1.012000985831837
 10
0.4120903776214267
 20
1.042947180135528
  0
CIRCLE
  5
141
330
2
100
AcDbEntity
  8
ZDRILL
100
AcDbCircle
 10
0.4399999999999942
 20
1.056715050006067
 30
0.0000000000000001
 40
0.0075
  0
CIRCLE
  5
142
330
2
100
AcDbEntity
  8
ZDRILL
100
AcDbCircle
 10
0.4399999999999942
 20
0.9567150500060677
 30
0.0000000000000001
 40
0.0075
  0
CIRCLE
  5
143
330
2
100
AcDbEntity
  8
ZDRILL
100
AcDbCircle
 10
0.625
 20
1.056715050006067
 30
0.0000000000000001
 40
0.0075
  0
CIRCLE
  5
144
330
2
100
AcDbEntity
  8
ZDRILL
100
AcDbCircle
 10
0.625
 20
0.9567150500060677
 30
0.0000000000000001
 40
0.0075
  0
CIRCLE
  5
145
330
2
100
AcDbEntity
  8
ZDRILL
100
AcDbCircle
 10
0.5399999999999956
 20
0.9567150500060677
 30
0.0000000000000001
 40
0.0075
  0
CIRCLE
  5
146
330
2
100
AcDbEntity
  8
ZDRILL
100
AcDbCircle
 10
0.5161988691381119
 20
1.186080940768805
 30
0.0000000000000002
 40
0.01125
  0
LWPOLYLINE
  5
147
330
2
100
AcDbEntity
  8
SLK-NS
100
AcDbPolyline
 90
        4
 70
     1
 43
0.0
 10
0.4120903776214267
 20
1.175757930688944
 10
0.4559308195516217
 20
1.219598372619198
 10
0.4559308195516217
 20
1.175757930688944
 10
0.4120903776214267
 20
1.131917488758691
  0
CIRCLE
  5
148
330
2
100
AcDbEntity
  8
ZDRILL
100
AcDbCircle
 10
0.4399999999999942
 20
1.230186023455171
 30
0.0000000000000001
 40
0.0075
  0
CIRCLE
  5
149
330
2
100
AcDbEntity
  8
ZDRILL
100
AcDbCircle
 10
0.4399999999999942
 20
1.156715050006067
 30
0.0000000000000001
 40
0.0075
  0
CIRCLE
  5
14A
330
2
100
AcDbEntity
  8
ZDRILL
100
AcDbCircle
 10
0.625
 20
1.230186023455171
 30
0.0000000000000001
 40
0.0075
  0
CIRCLE
  5
14B
330
2
100
AcDbEntity
  8
ZDRILL
100
AcDbCircle
 10
0.5399999999999956
 20
1.230186023455171
 30
0.0000000000000001
 40
0.0075
  0
CIRCLE
  5
14C
330
2
100
AcDbEntity
  8
ZDRILL
100
AcDbCircle
 10
0.625
 20
1.156715050006067
 30
0.0000000000000001
 40
0.0075
  0
CIRCLE
  5
14D
330
2
100
AcDbEntity
  8
ZDRILL
100
AcDbCircle
 10
0.7100000000000062
 20
1.056715050006067
 30
0.0000000000000001
 40
0.0075
  0
CIRCLE
  5
14E
330
2
100
AcDbEntity
  8
ZDRILL
100
AcDbCircle
 10
0.7100000000000062
 20
0.9567150500060677
 30
0.0000000000000001
 40
0.0075
  0
CIRCLE
  5
14F
330
2
100
AcDbEntity
  8
ZDRILL
100
AcDbCircle
 10
0.8100000000000058
 20
1.056715050006067
 30
0.0000000000000001
 40
0.0075
  0
CIRCLE
  5
150
330
2
100
AcDbEntity
  8
ZDRILL
100
AcDbCircle
 10
0.8100000000000058
 20
0.9567150500060677
 30
0.0000000000000001
 40
0.0075
  0
CIRCLE
  5
151
330
2
100
AcDbEntity
  8
ZDRILL
100
AcDbCircle
 10
0.7100000000000062
 20
1.230186023455171
 30
0.0000000000000001
 40
0.0075
  0
CIRCLE
  5
152
330
2
100
AcDbEntity
  8
ZDRILL
100
AcDbCircle
 10
0.7100000000000062
 20
1.156715050006067
 30
0.0000000000000001
 40
0.0075
  0
CIRCLE
  5
153
330
2
100
AcDbEntity
  8
ZDRILL
100
AcDbCircle
 10
0.8100000000000058
 20
1.230186023455171
 30
0.0000000000000001
 40
0.0075
  0
CIRCLE
  5
154
330
2
100
AcDbEntity
  8
ZDRILL
100
AcDbCircle
 10
0.8100000000000058
 20
1.156715050006067
 30
0.0000000000000001
 40
0.0075
  0
TEXT
  5
155
330
2
100
AcDbEntity
  8
SLK-NS
100
AcDbText
 10
1.122388303399418
 20
0.2480859949560397
 30
0.0
 40
0.04
  1
IF2
100
AcDbText
  0
TEXT
  5
156
330
2
100
AcDbEntity
  8
SLK-NS
100
AcDbText
 10
1.122388303399418
 20
0.3057989936761885
 30
0.0
 40
0.04
  1
J4
100
AcDbText
  0
CIRCLE
  5
157
330
2
100
AcDbEntity
  8
ZDRILL
100
AcDbCircle
 10
0.9579999999841994
 20
0.1799999999971158
 30
0.0
 40
0.0075
  0
CIRCLE
  5
158
330
2
100
AcDbEntity
  8
ZDRILL
100
AcDbCircle
 10
1.027999999975001
 20
0.0399999999971223
 30
0.0000000000000001
 40
0.0075
  0
CIRCLE
  5
159
330
2
100
AcDbEntity
  8
ZDRILL
100
AcDbCircle
 10
1.027999999975001
 20
0.1399999999971238
 30
0.0000000000000001
 40
0.0075
  0
CIRCLE
  5
15A
330
2
100
AcDbEntity
  8
ZDRILL
100
AcDbCircle
 10
0.9580000000249953
 20
0.0199999999971192
 30
0.0000000000000001
 40
0.0075
  0
CIRCLE
  5
15B
330
2
100
AcDbEntity
  8
ZDRILL
100
AcDbCircle
 10
0.9580000000249953
 20
0.0599999999971184
 30
0.0000000000000001
 40
0.0075
  0
CIRCLE
  5
15C
330
2
100
AcDbEntity
  8
ZDRILL
100
AcDbCircle
 10
0.9580000000249953
 20
0.0999999999971175
 30
0.0000000000000001
 40
0.0075
  0
CIRCLE
  5
15D
330
2
100
AcDbEntity
  8
ZDRILL
100
AcDbCircle
 10
0.9580000000249953
 20
0.1399999999971166
 30
0.0000000000000001
 40
0.0075
  0
CIRCLE
  5
15E
330
2
100
AcDbEntity
  8
ZDRILL
100
AcDbCircle
 10
1.1125
 20
0.1099999999971226
 30
0.0
 40
0.0405
  0
CIRCLE
  5
15F
330
2
100
AcDbEntity
  8
ZDRILL
100
AcDbCircle
 10
1.010000000000001
 20
0.350715050056067
 30
0.0000000000000001
 40
0.0075
  0
CIRCLE
  5
160
330
2
100
AcDbEntity
  8
ZDRILL
100
AcDbCircle
 10
1.010000000000001
 20
0.2507150500560673
 30
0.0000000000000001
 40
0.0075
  0
CIRCLE
  5
161
330
2
100
AcDbEntity
  8
ZDRILL
100
AcDbCircle
 10
0.9553081229733759
 20
0.2199999999971149
 30
0.0
 40
0.0075
  0
CIRCLE
  5
162
330
2
100
AcDbEntity
  8
ZDRILL
100
AcDbCircle
 10
0.9467671987781862
 20
0.2599999999971139
 30
0.0
 40
0.0075
  0
CIRCLE
  5
163
330
2
100
AcDbEntity
  8
ZDRILL
100
AcDbCircle
 10
0.9317920887772466
 20
0.2999999999971132
 30
0.0
 40
0.0075
  0
CIRCLE
  5
164
330
2
100
AcDbEntity
  8
ZDRILL
100
AcDbCircle
 10
1.110000000000001
 20
0.350715050056067
 30
0.0000000000000001
 40
0.0075
  0
CIRCLE
  5
165
330
2
100
AcDbEntity
  8
ZDRILL
100
AcDbCircle
 10
1.110000000000001
 20
0.2507150500560673
 30
0.0000000000000001
 40
0.0075
  0
CIRCLE
  5
166
330
2
100
AcDbEntity
  8
ZDRILL
100
AcDbCircle
 10
1.21
 20
0.1507150500560677
 30
0.0000000000000001
 40
0.0075
  0
CIRCLE
  5
167
330
2
100
AcDbEntity
  8
ZDRILL
100
AcDbCircle
 10
1.21
 20
0.050715050056068
 30
0.0000000000000001
 40
0.0075
  0
CIRCLE
  5
168
330
2
100
AcDbEntity
  8
ZDRILL
100
AcDbCircle
 10
1.21
 20
0.350715050056067
 30
0.0000000000000001
 40
0.0075
  0
CIRCLE
  5
169
330
2
100
AcDbEntity
  8
ZDRILL
100
AcDbCircle
 10
1.21
 20
0.2507150500560673
 30
0.0000000000000001
 40
0.0075
  0
CIRCLE
  5
16A
330
2
100
AcDbEntity
  8
ZDRILL
100
AcDbCircle
 10
1.190000000000011
 20
0.7207150500060707
 30
0.0000000000000001
 40
0.0075
  0
CIRCLE
  5
16B
330
2
100
AcDbEntity
  8
ZDRILL
100
AcDbCircle
 10
1.190000000000011
 20
0.7867150500060696
 30
0.0000000000000001
 40
0.0075
  0
CIRCLE
  5
16C
330
2
100
AcDbEntity
  8
ZDRILL
100
AcDbCircle
 10
1.110000000000006
 20
0.6507150500560659
 30
0.0000000000000001
 40
0.0075
  0
CIRCLE
  5
16D
330
2
100
AcDbEntity
  8
ZDRILL
100
AcDbCircle
 10
1.010000000000005
 20
0.6507150500560659
 30
0.0000000000000001
 40
0.0075
  0
CIRCLE
  5
16E
330
2
100
AcDbEntity
  8
ZDRILL
100
AcDbCircle
 10
1.010000000000001
 20
0.4507150500560666
 30
0.0000000000000001
 40
0.0075
  0
CIRCLE
  5
16F
330
2
100
AcDbEntity
  8
ZDRILL
100
AcDbCircle
 10
1.010000000000005
 20
0.5507150500560663
 30
0.0000000000000001
 40
0.0075
  0
CIRCLE
  5
170
330
2
100
AcDbEntity
  8
ZDRILL
100
AcDbCircle
 10
1.110000000000001
 20
0.4507150500560666
 30
0.0000000000000001
 40
0.0075
  0
CIRCLE
  5
171
330
2
100
AcDbEntity
  8
ZDRILL
100
AcDbCircle
 10
1.140000000000007
 20
0.566215050031067
 30
0.0
 40
0.0405
  0
CIRCLE
  5
172
330
2
100
AcDbEntity
  8
ZDRILL
100
AcDbCircle
 10
1.010000000000005
 20
0.856715050006068
 30
0.0000000000000001
 40
0.0075
  0
CIRCLE
  5
173
330
2
100
AcDbEntity
  8
ZDRILL
100
AcDbCircle
 10
0.9900000000000162
 20
0.7207150500060707
 30
0.0000000000000001
 40
0.0075
  0
CIRCLE
  5
174
330
2
100
AcDbEntity
  8
ZDRILL
100
AcDbCircle
 10
1.030000000000015
 20
0.7207150500060707
 30
0.0000000000000001
 40
0.0075
  0
CIRCLE
  5
175
330
2
100
AcDbEntity
  8
ZDRILL
100
AcDbCircle
 10
0.9900000000000162
 20
0.7867150500060696
 30
0.0000000000000001
 40
0.0075
  0
CIRCLE
  5
176
330
2
100
AcDbEntity
  8
ZDRILL
100
AcDbCircle
 10
1.030000000000015
 20
0.7867150500060696
 30
0.0000000000000001
 40
0.0075
  0
CIRCLE
  5
177
330
2
100
AcDbEntity
  8
ZDRILL
100
AcDbCircle
 10
0.950000000000017
 20
0.7207150500060707
 30
0.0000000000000001
 40
0.0075
  0
CIRCLE
  5
178
330
2
100
AcDbEntity
  8
ZDRILL
100
AcDbCircle
 10
0.950000000000017
 20
0.7867150500060696
 30
0.0000000000000001
 40
0.0075
  0
CIRCLE
  5
179
330
2
100
AcDbEntity
  8
ZDRILL
100
AcDbCircle
 10
1.110000000000006
 20
0.856715050006068
 30
0.0000000000000001
 40
0.0075
  0
CIRCLE
  5
17A
330
2
100
AcDbEntity
  8
ZDRILL
100
AcDbCircle
 10
1.110000000000013
 20
0.7207150500060707
 30
0.0000000000000001
 40
0.0075
  0
CIRCLE
  5
17B
330
2
100
AcDbEntity
  8
ZDRILL
100
AcDbCircle
 10
1.110000000000013
 20
0.7867150500060696
 30
0.0000000000000001
 40
0.0075
  0
CIRCLE
  5
17C
330
2
100
AcDbEntity
  8
ZDRILL
100
AcDbCircle
 10
1.070000000000014
 20
0.7207150500060707
 30
0.0000000000000001
 40
0.0075
  0
CIRCLE
  5
17D
330
2
100
AcDbEntity
  8
ZDRILL
100
AcDbCircle
 10
1.070000000000014
 20
0.7867150500060696
 30
0.0000000000000001
 40
0.0075
  0
CIRCLE
  5
17E
330
2
100
AcDbEntity
  8
ZDRILL
100
AcDbCircle
 10
1.150000000000012
 20
0.7207150500060707
 30
0.0000000000000001
 40
0.0075
  0
CIRCLE
  5
17F
330
2
100
AcDbEntity
  8
ZDRILL
100
AcDbCircle
 10
1.150000000000012
 20
0.7867150500060696
 30
0.0000000000000001
 40
0.0075
  0
CIRCLE
  5
180
330
2
100
AcDbEntity
  8
ZDRILL
100
AcDbCircle
 10
1.210000000000007
 20
0.6507150500560659
 30
0.0000000000000001
 40
0.0075
  0
CIRCLE
  5
181
330
2
100
AcDbEntity
  8
ZDRILL
100
AcDbCircle
 10
1.21
 20
0.4507150500560666
 30
0.0000000000000001
 40
0.0075
  0
CIRCLE
  5
182
330
2
100
AcDbEntity
  8
ZDRILL
100
AcDbCircle
 10
1.210000000000007
 20
0.5507150500560663
 30
0.0000000000000001
 40
0.0075
  0
CIRCLE
  5
183
330
2
100
AcDbEntity
  8
ZDRILL
100
AcDbCircle
 10
1.210000000000007
 20
0.856715050006068
 30
0.0000000000000001
 40
0.0075
  0
CIRCLE
  5
184
330
2
100
AcDbEntity
  8
ZDRILL
100
AcDbCircle
 10
1.230000000000011
 20
0.7207150500060707
 30
0.0000000000000001
 40
0.0075
  0
CIRCLE
  5
185
330
2
100
AcDbEntity
  8
ZDRILL
100
AcDbCircle
 10
1.230000000000011
 20
0.7867150500060696
 30
0.0000000000000001
 40
0.0075
  0
TEXT
  5
186
330
2
100
AcDbEntity
  8
SLK-NS
100
AcDbText
 10
1.129150516400557
 20
1.069418670774195
 30
0.0
 40
0.04
  1
LO
100
AcDbText
  0
TEXT
  5
187
330
2
100
AcDbEntity
  8
SLK-NS
100
AcDbText
 10
1.129150516400557
 20
1.127131669494343
 30
0.0
 40
0.04
  1
J2
100
AcDbText
  0
CIRCLE
  5
188
330
2
100
AcDbEntity
  8
ZDRILL
100
AcDbCircle
 10
1.010000000000005
 20
1.056715050006067
 30
0.0000000000000001
 40
0.0075
  0
CIRCLE
  5
189
330
2
100
AcDbEntity
  8
ZDRILL
100
AcDbCircle
 10
1.010000000000005
 20
0.9567150500060677
 30
0.0000000000000001
 40
0.0075
  0
CIRCLE
  5
18A
330
2
100
AcDbEntity
  8
ZDRILL
100
AcDbCircle
 10
1.110000000000004
 20
1.056715050006067
 30
0.0000000000000001
 40
0.0075
  0
CIRCLE
  5
18B
330
2
100
AcDbEntity
  8
ZDRILL
100
AcDbCircle
 10
1.140000000000007
 20
0.9412150500310669
 30
0.0
 40
0.0405
  0
CIRCLE
  5
18C
330
2
100
AcDbEntity
  8
ZDRILL
100
AcDbCircle
 10
1.010000000000005
 20
1.230186023455171
 30
0.0000000000000001
 40
0.0075
  0
CIRCLE
  5
18D
330
2
100
AcDbEntity
  8
ZDRILL
100
AcDbCircle
 10
1.010000000000005
 20
1.156715050006067
 30
0.0000000000000001
 40
0.0075
  0
CIRCLE
  5
18E
330
2
100
AcDbEntity
  8
ZDRILL
100
AcDbCircle
 10
1.110000000000004
 20
1.230186023455171
 30
0.0000000000000001
 40
0.0075
  0
CIRCLE
  5
18F
330
2
100
AcDbEntity
  8
ZDRILL
100
AcDbCircle
 10
1.110000000000004
 20
1.156715050006067
 30
0.0000000000000001
 40
0.0075
  0
CIRCLE
  5
190
330
2
100
AcDbEntity
  8
ZDRILL
100
AcDbCircle
 10
1.210000000000004
 20
1.056715050006067
 30
0.0000000000000001
 40
0.0075
  0
CIRCLE
  5
191
330
2
100
AcDbEntity
  8
ZDRILL
100
AcDbCircle
 10
1.210000000000007
 20
0.9567150500060677
 30
0.0000000000000001
 40
0.0075
  0
CIRCLE
  5
192
330
2
100
AcDbEntity
  8
ZDRILL
100
AcDbCircle
 10
1.210000000000004
 20
1.230186023455171
 30
0.0000000000000001
 40
0.0075
  0
CIRCLE
  5
193
330
2
100
AcDbEntity
  8
ZDRILL
100
AcDbCircle
 10
1.210000000000004
 20
1.156715050006067
 30
0.0000000000000001
 40
0.0075
  0
TEXT
  5
194
330
2
100
AcDbEntity
  8
SLK-NS
100
AcDbText
 10
0.5410305457654517
 20
1.036262485246138
 30
0.0000000000000002
 40
0.0573473444161733
  1
MMIC
100
AcDbText
  0
ENDSEC
  0
SECTION
  2
OBJECTS
  0
DICTIONARY
  5
9
330
0
100
AcDbDictionary
281
     1
  3
ACAD_GROUP
350
2C
  3
ACAD_LAYOUT
350
D
  3
ACAD_MLINESTYLE
350
2D
  3
ACAD_PLOTSETTINGS
350
2E
  3
ACAD_PLOTSTYLENAME
350
8
  0
DICTIONARY
  5
18
330
17
100
AcDbDictionary
280
     1
281
     1
  3
ACAD_LAYERFILTERS
360
19
  3
ACAD_LAYERSTATES
360
1C
  0
DICTIONARY
  5
3C
330
3B
100
AcDbDictionary
280
     1
281
     1
  3
ACAD_XREC_ROUNDTRIP
360
3D
  0
DICTIONARY
  5
50
330
4F
100
AcDbDictionary
280
     1
281
     1
  3
ACAD_XREC_ROUNDTRIP
360
51
  0
DICTIONARY
  5
57
330
56
100
AcDbDictionary
280
     1
281
     1
  3
ACAD_XREC_ROUNDTRIP
360
58
  0
DICTIONARY
  5
3
330
2
100
AcDbDictionary
280
     1
281
     1
  3
ACAD_SORTENTS
360
4
  0
DICTIONARY
  5
2C
102
{ACAD_REACTORS
330
9
102
}
330
9
100
AcDbDictionary
281
     1
  0
DICTIONARY
  5
D
102
{ACAD_REACTORS
330
9
102
}
330
9
100
AcDbDictionary
281
     1
  3
Layout1
350
14
  3
Model
350
C
  0
DICTIONARY
  5
2D
102
{ACAD_REACTORS
330
9
102
}
330
9
100
AcDbDictionary
281
     1
  3
Standard
350
31
  0
DICTIONARY
  5
2E
102
{ACAD_REACTORS
330
9
102
}
330
9
100
AcDbDictionary
281
     1
  0
ACDBDICTIONARYWDFLT
  5
8
102
{ACAD_REACTORS
330
9
102
}
330
9
100
AcDbDictionary
281
     1
  3
Normal
350
7
100
AcDbDictionaryWithDefault
340
7
  0
DICTIONARY
  5
19
102
{ACAD_REACTORS
330
18
102
}
330
18
100
AcDbDictionary
280
     1
281
     1
  3
CAM
360
1A
  3
On layers
360
1B
  0
DICTIONARY
  5
1C
102
{ACAD_REACTORS
330
18
102
}
330
18
100
AcDbDictionary
281
     1
  0
XRECORD
  5
3D
102
{ACAD_REACTORS
330
3C
102
}
330
3C
100
AcDbXrecord
280
     1
102
MATERIAL
340
0
  0
XRECORD
  5
51
102
{ACAD_REACTORS
330
50
102
}
330
50
100
AcDbXrecord
280
     1
102
MATERIAL
340
0
  0
XRECORD
  5
58
102
{ACAD_REACTORS
330
57
102
}
330
57
100
AcDbXrecord
280
     1
102
MATERIAL
340
0
  0
SORTENTSTABLE
  5
4
102
{ACAD_REACTORS
330
3
102
}
330
3
100
AcDbSortentsTable
330
2
  0
LAYOUT
  5
14
102
{ACAD_XDICTIONARY
360
15
102
}
102
{ACAD_REACTORS
330
D
102
}
330
D
100
AcDbPlotSettings
  1

  2
None
  4

  6

 40
0.0
 41
0.0
 42
0.0
 43
0.0
 44
0.0
 45
0.0
 46
0.0
 47
0.0
 48
0.0
 49
0.0
140
0.0
141
0.0
142
1.0
143
1.0
 70
   688
 72
     0
 73
     0
 74
     5
  7
monochrome.ctb
 75
    16
147
1.0
148
0.0
149
0.0
100
AcDbLayout
  1
Layout1
 70
     1
 71
     1
 10
0.0
 20
0.0
 11
12.0
 21
9.0
 12
0.0
 22
0.0
 32
0.0
 14
0.0
 24
0.0
 34
0.0
 15
0.0
 25
0.0
 35
0.0
146
0.0
 13
0.0
 23
0.0
 33
0.0
 16
1.0
 26
0.0
 36
0.0
 17
0.0
 27
1.0
 37
0.0
 76
     0
330
11
  0
LAYOUT
  5
C
102
{ACAD_XDICTIONARY
360
E
102
}
102
{ACAD_REACTORS
330
D
102
}
330
D
100
AcDbPlotSettings
  1

  2
Acrobat Distiller
  4
User119
  6

 40
3.174999952316284
 41
3.174999952316284
 42
3.17498779296875
 43
3.17498779296875
 44
279.3999938964843
 45
431.7999877929687
 46
0.0
 47
0.0
 48
0.0
 49
0.0
140
5.501869581168232
141
4.247882212240988
142
1.0
143
0.3951518247949586
 70
  3600
 72
     0
 73
     1
 74
     4
  7
monochrome.ctb
 75
     0
147
2.530672863573115
148
0.0
149
0.0
100
AcDbLayout
  1
Model
 70
     1
 71
     0
 10
0.0
 20
0.0
 11
12.0
 21
9.0
 12
0.0
 22
0.0
 32
0.0
 14
0.0
 24
0.0
 34
0.0
 15
0.0
 25
0.0
 35
0.0
146
0.0
 13
0.0
 23
0.0
 33
0.0
 16
1.0
 26
0.0
 36
0.0
 17
0.0
 27
1.0
 37
0.0
 76
     0
330
2
1001
ACAD_PSEXT
1000
Adobe PDFD.pc3
1000
Adobe PDF Converter
1000
My Documents
1000
Creates Adobe PDF
1070
     0
  0
MLINESTYLE
  5
31
102
{ACAD_REACTORS
330
2D
102
}
330
2D
100
AcDbMlineStyle
  2
STANDARD
 70
     0
  3

 62
   256
 51
90.0
 52
90.0
 71
     2
 49
0.5
 62
   256
  6
BYLAYER
 49
-0.5
 62
   256
  6
BYLAYER
  0
ACDBPLACEHOLDER
  5
7
102
{ACAD_REACTORS
330
8
102
}
330
8
  0
XRECORD
  5
1A
102
{ACAD_REACTORS
330
19
102
}
330
19
100
AcDbXrecord
280
     1
  1
CAM
  1
*draw*,*flash*
  1
*
  1
*
 70
     0
  1
*
  1
*
  0
XRECORD
  5
1B
102
{ACAD_REACTORS
330
19
102
}
330
19
100
AcDbXrecord
280
     1
  1
On layers
  1
*
  1
*
  1
*
 70
     1
  1
*
  1
*
  0
DICTIONARY
  5
15
330
14
100
AcDbDictionary
280
     1
281
     1
  3
ACAD_XREC_ROUNDTRIP
360
16
  0
DICTIONARY
  5
E
330
C
100
AcDbDictionary
280
     1
281
     1
  3
ACAD_XREC_ROUNDTRIP
360
F
  0
XRECORD
  5
16
102
{ACAD_REACTORS
330
15
102
}
330
15
100
AcDbXrecord
280
     1
102
SHADEPLOT
 70
     0
102
SHADEPLOTRESLEVEL
 70
     2
102
SHADEPLOTCUSTOMDPI
 70
   300
  0
XRECORD
  5
F
102
{ACAD_REACTORS
330
E
102
}
330
E
100
AcDbXrecord
280
     1
102
SHADEPLOT
 70
     1
102
SHADEPLOTRESLEVEL
 70
     2
102
SHADEPLOTCUSTOMDPI
 70
   300
  0
ENDSEC
  0
EOF
