  0
SECTION
  2
HEADER
  9
$ACADVER
  1
AC1015
  9
$ACADMAINTVER
 70
    10
  9
$DWGCODEPAGE
  3
ANSI_1252
  9
$INSBASE
 10
0.0
 20
0.0
 30
0.0
  9
$EXTMIN
 10
-0.0003661829982491
 20
-0.0002746372486868
 30
-0.0015258207003583
  9
$EXTMAX
 10
1.000305190915597
 20
1.000167858321415
 30
0.0000000349246037
  9
$LIMMIN
 10
0.0
 20
0.0
  9
$LIMMAX
 10
12.0
 20
9.0
  9
$ORTHOMODE
 70
     1
  9
$REGENMODE
 70
     1
  9
$FILLMODE
 70
     1
  9
$QTEXTMODE
 70
     0
  9
$MIRRTEXT
 70
     1
  9
$LTSCALE
 40
1.0
  9
$ATTMODE
 70
     1
  9
$TEXTSIZE
 40
0.2
  9
$TRACEWID
 40
0.05
  9
$TEXTSTYLE
  7
style1
  9
$CLAYER
  8
dim
  9
$CELTYPE
  6
ByLayer
  9
$CECOLOR
 62
   256
  9
$CELTSCALE
 40
1.0
  9
$DISPSILH
 70
     0
  9
$DIMSCALE
 40
0.125
  9
$DIMASZ
 40
0.18
  9
$DIMEXO
 40
0.0625
  9
$DIMDLI
 40
0.38
  9
$DIMRND
 40
0.0
  9
$DIMDLE
 40
0.0
  9
$DIMEXE
 40
0.18
  9
$DIMTP
 40
0.0
  9
$DIMTM
 40
0.0
  9
$DIMTXT
 40
0.18
  9
$DIMCEN
 40
0.09
  9
$DIMTSZ
 40
0.0
  9
$DIMTOL
 70
     0
  9
$DIMLIM
 70
     0
  9
$DIMTIH
 70
     1
  9
$DIMTOH
 70
     1
  9
$DIMSE1
 70
     0
  9
$DIMSE2
 70
     0
  9
$DIMTAD
 70
     0
  9
$DIMZIN
 70
     4
  9
$DIMBLK
  1

  9
$DIMASO
 70
     1
  9
$DIMSHO
 70
     1
  9
$DIMPOST
  1

  9
$DIMAPOST
  1

  9
$DIMALT
 70
     0
  9
$DIMALTD
 70
     2
  9
$DIMALTF
 40
25.4
  9
$DIMLFAC
 40
1.0
  9
$DIMTOFL
 70
     0
  9
$DIMTVP
 40
0.0
  9
$DIMTIX
 70
     0
  9
$DIMSOXD
 70
     0
  9
$DIMSAH
 70
     0
  9
$DIMBLK1
  1

  9
$DIMBLK2
  1

  9
$DIMSTYLE
  2
Standard
  9
$DIMCLRD
 70
     0
  9
$DIMCLRE
 70
     0
  9
$DIMCLRT
 70
     0
  9
$DIMTFAC
 40
1.0
  9
$DIMGAP
 40
0.09
  9
$DIMJUST
 70
     0
  9
$DIMSD1
 70
     0
  9
$DIMSD2
 70
     0
  9
$DIMTOLJ
 70
     1
  9
$DIMTZIN
 70
     0
  9
$DIMALTZ
 70
     0
  9
$DIMALTTZ
 70
     0
  9
$DIMUPT
 70
     1
  9
$DIMDEC
 70
     3
  9
$DIMTDEC
 70
     3
  9
$DIMALTU
 70
     2
  9
$DIMALTTD
 70
     2
  9
$DIMTXSTY
  7
Standard
  9
$DIMAUNIT
 70
     0
  9
$DIMADEC
 70
     0
  9
$DIMALTRND
 40
0.0
  9
$DIMAZIN
 70
     0
  9
$DIMDSEP
 70
    46
  9
$DIMATFIT
 70
     3
  9
$DIMFRAC
 70
     0
  9
$DIMLDRBLK
  1

  9
$DIMLUNIT
 70
     2
  9
$DIMLWD
 70
    -2
  9
$DIMLWE
 70
    -2
  9
$DIMTMOVE
 70
     0
  9
$LUNITS
 70
     2
  9
$LUPREC
 70
     4
  9
$SKETCHINC
 40
0.1
  9
$FILLETRAD
 40
0.03
  9
$AUNITS
 70
     0
  9
$AUPREC
 70
     0
  9
$MENU
  1
.
  9
$ELEVATION
 40
0.0
  9
$PELEVATION
 40
0.0
  9
$THICKNESS
 40
0.0
  9
$LIMCHECK
 70
     0
  9
$CHAMFERA
 40
0.0
  9
$CHAMFERB
 40
0.0
  9
$CHAMFERC
 40
1.0
  9
$CHAMFERD
 40
0.0
  9
$SKPOLY
 70
     0
  9
$TDCREATE
 40
2454509.949108217
  9
$TDUCREATE
 40
2454510.115774884
  9
$TDUPDATE
 40
2456232.809458483
  9
$TDUUPDATE
 40
2456232.976125150
  9
$TDINDWG
 40
14.3689835069
  9
$TDUSRTIMER
 40
14.3689835069
  9
$USRTIMER
 70
     1
  9
$ANGBASE
 50
0.0
  9
$ANGDIR
 70
     0
  9
$PDMODE
 70
     0
  9
$PDSIZE
 40
0.0
  9
$PLINEWID
 40
0.0
  9
$SPLFRAME
 70
     0
  9
$SPLINETYPE
 70
     6
  9
$SPLINESEGS
 70
     8
  9
$HANDSEED
  5
12D
  9
$SURFTAB1
 70
     6
  9
$SURFTAB2
 70
     6
  9
$SURFTYPE
 70
     6
  9
$SURFU
 70
     6
  9
$SURFV
 70
     6
  9
$UCSBASE
  2

  9
$UCSNAME
  2

  9
$UCSORG
 10
0.0
 20
0.0
 30
0.0
  9
$UCSXDIR
 10
1.0
 20
0.0
 30
0.0
  9
$UCSYDIR
 10
0.0
 20
1.0
 30
0.0
  9
$UCSORTHOREF
  2

  9
$UCSORTHOVIEW
 70
     0
  9
$UCSORGTOP
 10
0.0
 20
0.0
 30
0.0
  9
$UCSORGBOTTOM
 10
0.0
 20
0.0
 30
0.0
  9
$UCSORGLEFT
 10
0.0
 20
0.0
 30
0.0
  9
$UCSORGRIGHT
 10
0.0
 20
0.0
 30
0.0
  9
$UCSORGFRONT
 10
0.0
 20
0.0
 30
0.0
  9
$UCSORGBACK
 10
0.0
 20
0.0
 30
0.0
  9
$PUCSBASE
  2

  9
$PUCSNAME
  2

  9
$PUCSORG
 10
0.0
 20
0.0
 30
0.0
  9
$PUCSXDIR
 10
1.0
 20
0.0
 30
0.0
  9
$PUCSYDIR
 10
0.0
 20
1.0
 30
0.0
  9
$PUCSORTHOREF
  2

  9
$PUCSORTHOVIEW
 70
     0
  9
$PUCSORGTOP
 10
0.0
 20
0.0
 30
0.0
  9
$PUCSORGBOTTOM
 10
0.0
 20
0.0
 30
0.0
  9
$PUCSORGLEFT
 10
0.0
 20
0.0
 30
0.0
  9
$PUCSORGRIGHT
 10
0.0
 20
0.0
 30
0.0
  9
$PUCSORGFRONT
 10
0.0
 20
0.0
 30
0.0
  9
$PUCSORGBACK
 10
0.0
 20
0.0
 30
0.0
  9
$USERI1
 70
     0
  9
$USERI2
 70
     0
  9
$USERI3
 70
     0
  9
$USERI4
 70
     0
  9
$USERI5
 70
     0
  9
$USERR1
 40
0.0
  9
$USERR2
 40
0.0
  9
$USERR3
 40
0.0
  9
$USERR4
 40
0.0
  9
$USERR5
 40
0.0
  9
$WORLDVIEW
 70
     1
  9
$SHADEDGE
 70
     3
  9
$SHADEDIF
 70
    70
  9
$TILEMODE
 70
     1
  9
$MAXACTVP
 70
    64
  9
$PINSBASE
 10
0.0
 20
0.0
 30
0.0
  9
$PLIMCHECK
 70
     0
  9
$PEXTMIN
 10
0.0
 20
0.0
 30
0.0
  9
$PEXTMAX
 10
0.0
 20
0.0
 30
0.0
  9
$PLIMMIN
 10
0.0
 20
0.0
  9
$PLIMMAX
 10
12.0
 20
9.0
  9
$UNITMODE
 70
     0
  9
$VISRETAIN
 70
     1
  9
$PLINEGEN
 70
     0
  9
$PSLTSCALE
 70
     1
  9
$TREEDEPTH
 70
  3020
  9
$CMLSTYLE
  2
Standard
  9
$CMLJUST
 70
     0
  9
$CMLSCALE
 40
1.0
  9
$PROXYGRAPHICS
 70
     1
  9
$MEASUREMENT
 70
     0
  9
$CELWEIGHT
370
    -1
  9
$ENDCAPS
280
     0
  9
$JOINSTYLE
280
     0
  9
$LWDISPLAY
290
     0
  9
$INSUNITS
 70
     1
  9
$HYPERLINKBASE
  1

  9
$STYLESHEET
  1

  9
$XEDIT
290
     1
  9
$CEPSNTYPE
380
     0
  9
$PSTYLEMODE
290
     1
  9
$FINGERPRINTGUID
  2
{FDEAD576-A652-11D2-9A35-0060089B3A3F}
  9
$VERSIONGUID
  2
{190F5622-E9C8-41E8-8F40-11D0EFE96FDB}
  9
$EXTNAMES
290
     1
  9
$PSVPSCALE
 40
0.0
  9
$OLESTARTUP
290
     0
  0
ENDSEC
  0
SECTION
  2
CLASSES
  0
CLASS
  1
ACDBDICTIONARYWDFLT
  2
AcDbDictionaryWithDefault
  3
AutoCAD 2000
 90
        0
280
     0
281
     0
  0
CLASS
  1
ACDBPLACEHOLDER
  2
AcDbPlaceHolder
  3
AutoCAD 2000
 90
        0
280
     0
281
     0
  0
CLASS
  1
LAYOUT
  2
AcDbLayout
  3
AutoCAD 2000
 90
        0
280
     0
281
     0
  0
CLASS
  1
TABLESTYLE
  2
AcDbTableStyle
  3
ObjectDBX Classes
 90
    34815
280
     1
281
     0
  0
CLASS
  1
DICTIONARYVAR
  2
AcDbDictionaryVar
  3
AutoCAD 2000
 90
    32768
280
     0
281
     0
  0
CLASS
  1
SORTENTSTABLE
  2
AcDbSortentsTable
  3
AutoCAD 2000
 90
        0
280
     0
281
     0
  0
CLASS
  1
MATERIAL
  2
AcDbMaterial
  3
ObjectDBX Classes
 90
    32768
280
     1
281
     0
  0
CLASS
  1
DIMASSOC
  2
AcDbDimAssoc
  3
"AcDbDimAssoc|Product Desc:     AcDim ARX App For Dimension|Company:          Autodesk, Inc.|WEB Address:      www.autodesk.com"
 90
    32768
280
     1
281
     0
  0
ENDSEC
  0
SECTION
  2
TABLES
  0
TABLE
  2
VPORT
  5
25
330
0
100
AcDbSymbolTable
 70
     4
  0
VPORT
  5
12C
330
25
100
AcDbSymbolTableRecord
100
AcDbViewportTableRecord
  2
*Active
 70
     0
 10
0.0
 20
0.0
 11
1.0
 21
1.0
 12
0.499969503958674
 22
0.4999466105363642
 13
0.0
 23
0.0
 14
0.5
 24
0.5
 15
0.5
 25
0.5
 16
0.0
 26
0.0
 36
1.0
 17
0.0
 27
0.0
 37
0.0
 40
1.013635143863333
 41
2.070484581497797
 42
50.0
 43
0.0
 44
0.0
 50
0.0
 51
0.0
 71
     0
 72
   100
 73
     1
 74
     2
 75
     0
 76
     0
 77
     0
 78
     0
281
     0
 65
     1
110
0.0
120
0.0
130
0.0
111
1.0
121
0.0
131
0.0
112
0.0
122
1.0
132
0.0
 79
     0
146
0.0
  0
ENDTAB
  0
TABLE
  2
LTYPE
  5
20
330
0
100
AcDbSymbolTable
 70
     1
  0
LTYPE
  5
21
330
20
100
AcDbSymbolTableRecord
100
AcDbLinetypeTableRecord
  2
ByBlock
 70
     0
  3

 72
    65
 73
     0
 40
0.0
  0
LTYPE
  5
22
330
20
100
AcDbSymbolTableRecord
100
AcDbLinetypeTableRecord
  2
ByLayer
 70
     0
  3

 72
    65
 73
     0
 40
0.0
  0
LTYPE
  5
A
330
20
100
AcDbSymbolTableRecord
100
AcDbLinetypeTableRecord
  2
Continuous
 70
     0
  3
Solid line
 72
    65
 73
     0
 40
0.0
  0
ENDTAB
  0
TABLE
  2
LAYER
  5
17
102
{ACAD_XDICTIONARY
360
18
102
}
330
0
100
AcDbSymbolTable
 70
    11
  0
LAYER
  5
6
330
17
100
AcDbSymbolTableRecord
100
AcDbLayerTableRecord
  2
0
 70
     0
 62
     7
  6
Continuous
370
    -3
390
7
  0
LAYER
  5
2F
330
17
100
AcDbSymbolTableRecord
100
AcDbLayerTableRecord
  2
dim
 70
     0
 62
     3
  6
Continuous
370
    -3
390
7
  0
LAYER
  5
3B
330
17
100
AcDbSymbolTableRecord
100
AcDbLayerTableRecord
  2
lay1
 70
     0
 62
     4
  6
Continuous
370
    -3
390
7
  0
LAYER
  5
4D
330
17
100
AcDbSymbolTableRecord
100
AcDbLayerTableRecord
  2
ZDRILL
 70
     0
 62
     1
  6
Continuous
370
    -3
390
7
  0
LAYER
  5
3D
330
17
100
AcDbSymbolTableRecord
100
AcDbLayerTableRecord
  2
LAY2
 70
     0
 62
     5
  6
Continuous
370
    -3
390
7
  0
LAYER
  5
33
102
{ACAD_XDICTIONARY
360
34
102
}
330
17
100
AcDbSymbolTableRecord
100
AcDbLayerTableRecord
  2
MSK-NS
 70
     0
 62
    11
  6
Continuous
370
    -3
390
7
  0
LAYER
  5
41
102
{ACAD_XDICTIONARY
360
42
102
}
330
17
100
AcDbSymbolTableRecord
100
AcDbLayerTableRecord
  2
PCB
 70
     0
 62
     3
  6
Continuous
370
    -3
390
7
  0
LAYER
  5
49
102
{ACAD_XDICTIONARY
360
4A
102
}
330
17
100
AcDbSymbolTableRecord
100
AcDbLayerTableRecord
  2
SLK-NS
 70
     0
 62
     2
  6
Continuous
370
    -3
390
7
  0
LAYER
  5
4F
330
17
100
AcDbSymbolTableRecord
100
AcDbLayerTableRecord
  2
SCRATCH1
 70
     0
 62
     5
  6
Continuous
370
    -3
390
7
  0
LAYER
  5
38
330
17
100
AcDbSymbolTableRecord
100
AcDbLayerTableRecord
  2
MSK-NS-SCRATCH
 70
     0
 62
     2
  6
Continuous
370
    -3
390
7
  0
LAYER
  5
3F
330
17
100
AcDbSymbolTableRecord
100
AcDbLayerTableRecord
  2
LAY3
 70
     0
 62
     4
  6
Continuous
370
    -3
390
7
  0
ENDTAB
  0
TABLE
  2
STYLE
  5
1D
330
0
100
AcDbSymbolTable
 70
     2
  0
STYLE
  5
1E
330
1D
100
AcDbSymbolTableRecord
100
AcDbTextStyleTableRecord
  2
Standard
 70
     0
 40
0.0
 41
1.0
 50
0.0
 71
     0
 42
0.2
  3
txt
  4

  0
STYLE
  5
30
330
1D
100
AcDbSymbolTableRecord
100
AcDbTextStyleTableRecord
  2
style1
 70
     0
 40
0.0
 41
1.0
 50
0.0
 71
     0
 42
0.2
  3
sanss___.ttf
  4

1001
ACAD
1000
SansSerif
1071
      514
  0
ENDTAB
  0
TABLE
  2
VIEW
  5
23
330
0
100
AcDbSymbolTable
 70
     0
  0
ENDTAB
  0
TABLE
  2
UCS
  5
24
330
0
100
AcDbSymbolTable
 70
     0
  0
ENDTAB
  0
TABLE
  2
APPID
  5
27
330
0
100
AcDbSymbolTable
 70
     3
  0
APPID
  5
28
330
27
100
AcDbSymbolTableRecord
100
AcDbRegAppTableRecord
  2
ACAD
 70
     0
  0
APPID
  5
10
330
27
100
AcDbSymbolTableRecord
100
AcDbRegAppTableRecord
  2
ACAD_PSEXT
 70
     0
  0
APPID
  5
36
330
27
100
AcDbSymbolTableRecord
100
AcDbRegAppTableRecord
  2
cdspoly
 70
     0
  0
ENDTAB
  0
TABLE
  2
DIMSTYLE
  5
29
330
0
100
AcDbSymbolTable
 70
     1
100
AcDbDimStyleTable
 71
     1
340
2A
  0
DIMSTYLE
105
2A
330
29
100
AcDbSymbolTableRecord
100
AcDbDimStyleTableRecord
  2
Standard
 70
     0
 40
0.25
 78
     4
271
     3
272
     3
288
     1
340
1E
  0
ENDTAB
  0
TABLE
  2
BLOCK_RECORD
  5
1
330
0
100
AcDbSymbolTable
 70
     0
  0
BLOCK_RECORD
  5
2
102
{ACAD_XDICTIONARY
360
3
102
}
330
1
100
AcDbSymbolTableRecord
100
AcDbBlockTableRecord
  2
*Model_Space
340
C
  0
BLOCK_RECORD
  5
11
330
1
100
AcDbSymbolTableRecord
100
AcDbBlockTableRecord
  2
*Paper_Space
340
14
  0
ENDTAB
  0
ENDSEC
  0
SECTION
  2
BLOCKS
  0
BLOCK
  5
5
330
2
100
AcDbEntity
  8
0
100
AcDbBlockBegin
  2
*Model_Space
 70
     0
 10
0.0
 20
0.0
 30
0.0
  3
*Model_Space
  1

  0
ENDBLK
  5
B
330
2
100
AcDbEntity
  8
0
100
AcDbBlockEnd
  0
BLOCK
  5
12
330
11
100
AcDbEntity
 67
     1
  8
0
100
AcDbBlockBegin
  2
*Paper_Space
 70
     0
 10
0.0
 20
0.0
 30
0.0
  3
*Paper_Space
  1

  0
ENDBLK
  5
13
330
11
100
AcDbEntity
 67
     1
  8
0
100
AcDbBlockEnd
  0
ENDSEC
  0
SECTION
  2
ENTITIES
  0
LWPOLYLINE
  5
32
330
2
100
AcDbEntity
  8
MSK-NS
100
AcDbPolyline
 90
        4
 70
     1
 43
0.0
 10
0.999999999987815
 20
0.9998167619789828
 10
-0.0000000000121849
 20
0.9998167619789828
 10
0.0
 20
0.0
 10
0.9999999999999991
 20
0.0
1001
cdspoly
1000

  0
LWPOLYLINE
  5
37
330
2
100
AcDbEntity
  8
MSK-NS-SCRATCH
100
AcDbPolyline
 90
        8
 70
     1
 43
0.0
 10
0.3989448818770507
 20
0.4371889764026145
 10
0.2129999999751204
 20
0.4371889764026145
 10
0.2129999999751204
 20
0.2260993773474202
 10
-0.0000000000091767
 20
0.2260993773474205
 10
-0.0000000000091767
 20
0.7460993773474181
 10
0.2129999999751204
 20
0.7460993773474226
 10
0.2129999999751195
 20
0.5431889763526153
 10
0.3989448818770507
 20
0.5431889763526153
  0
LWPOLYLINE
  5
39
330
2
100
AcDbEntity
  8
MSK-NS-SCRATCH
100
AcDbPolyline
 90
        8
 70
     1
 43
0.0
 10
0.6207401574683127
 20
0.4371889764026145
 10
0.6207401574683127
 20
0.5431889763526153
 10
0.7870000000001687
 20
0.5431889763526153
 10
0.7870000000001687
 20
0.7501889763776103
 10
0.9999999999907709
 20
0.7501889763776103
 10
0.9999999999907709
 20
0.2301889763776124
 10
0.7870000000001705
 20
0.2301889763776079
 10
0.7870000000001705
 20
0.4371889764026145
  0
LWPOLYLINE
  5
3A
330
2
100
AcDbEntity
  8
lay1
100
AcDbPolyline
 90
       28
 70
     1
 43
0.0
 10
0.3848425196852085
 20
0.0050000000000006
 10
0.0050000000001083
 20
0.0050000000000006
 10
0.0049999999955954
 20
0.365188976377613
 10
-0.000000000008602
 20
0.3651889763776126
 10
-0.0000000000126485
 20
0.4768889763775304
 10
0.4733039370047641
 20
0.4768889763775805
 10
0.4733039370047641
 20
0.5034889763647474
 10
-0.0000000000075362
 20
0.5034889763779365
 10
-0.0000000000075362
 20
0.6151889763776131
 10
0.0049999999924628
 20
0.6151889763776131
 10
0.0049999999877075
 20
0.9948167619789833
 10
0.9949999999877077
 20
0.9948167619789833
 10
0.994999999992463
 20
0.6151889763776131
 10
0.9999999999924638
 20
0.6151889763776131
 10
0.999999999992462
 20
0.5034889763775265
 10
0.5463811023589847
 20
0.5034889763776505
 10
0.5463811023589847
 20
0.4768889763652798
 10
1.000000000004164
 20
0.4768889763779385
 10
1.000000000004351
 20
0.3651889763776135
 10
0.9949999999955965
 20
0.365188976377613
 10
0.9950000000001084
 20
0.0050000000000006
 10
0.6348425196852086
 20
0.0050000000000006
 10
0.6348425196852086
 20
0.0000000000000051
 10
0.5231425196861404
 20
0.0000000000000031
 10
0.52314251965442
 20
0.4536503936913079
 10
0.4965425196356419
 20
0.4536503936913079
 10
0.4965425196867282
 20
0.0000000000000027
 10
0.3848425196852085
 20
0.0000000000000007
  0
LWPOLYLINE
  5
3C
330
2
100
AcDbEntity
  8
LAY2
100
AcDbPolyline
 90
        4
 70
     1
 43
0.0
 10
0.9949999999877077
 20
0.9948167619789833
 10
0.0049999999877075
 20
0.9948167619789833
 10
0.0050000000001083
 20
0.0050000000000006
 10
0.9950000000001084
 20
0.0050000000000006
1001
cdspoly
1000

  0
LWPOLYLINE
  5
3E
330
2
100
AcDbEntity
  8
LAY3
100
AcDbPolyline
 90
        4
 70
     1
 43
0.0
 10
0.9949999999877077
 20
0.9948167619789833
 10
0.0049999999877075
 20
0.9948167619789833
 10
0.0050000000001083
 20
0.0050000000000006
 10
0.9950000000001084
 20
0.0050000000000006
1001
cdspoly
1000

  0
LWPOLYLINE
  5
40
330
2
100
AcDbEntity
  8
PCB
100
AcDbPolyline
 90
        4
 70
     1
 43
0.0
 10
0.9999999999876445
 20
0.9998167619789832
 10
-0.0000000000123554
 20
0.9998167619789832
 10
0.0000000000001705
 20
0.0000000000000007
 10
1.000000000000171
 20
0.0000000000000007
1001
cdspoly
1000

  0
LWPOLYLINE
  5
44
330
2
100
AcDbEntity
  8
MSK-NS-SCRATCH
100
AcDbPolyline
 90
        5
 70
     1
 43
0.0
 10
0.5374330708537736
 20
0.4152913385819794
 10
0.5374330708537665
 20
0.445881889763075
 10
0.5354330708537658
 20
0.4478818897630756
 10
0.5216220472317171
 20
0.447881889763081
 10
0.5216220472317171
 20
0.4152913385819794
  0
LWPOLYLINE
  5
45
330
2
100
AcDbEntity
  8
MSK-NS-SCRATCH
100
AcDbPolyline
 90
        5
 70
     1
 43
0.0
 10
0.5374330708537132
 20
0.5650866141732502
 10
0.5374330708537452
 20
0.5344960629921476
 10
0.5354330708537481
 20
0.5324960629921469
 10
0.521622047231678
 20
0.532496062992138
 10
0.5216220472316567
 20
0.5650866141732396
  0
LWPOLYLINE
  5
46
330
2
100
AcDbEntity
  8
MSK-NS-SCRATCH
100
AcDbPolyline
 90
        8
 70
     1
 43
0.0
 10
0.4568425196987667
 20
0.3792913385819794
 10
0.5628425196487675
 20
0.3792913385819794
 10
0.562842519659939
 20
0.2130000000000123
 10
0.7698425196852048
 20
0.2130000000000123
 10
0.7698425196852048
 20
0.0000000000000007
 10
0.249842519685207
 20
0.0000000000000007
 10
0.2498425196852025
 20
0.2130000000000123
 10
0.4568425197099382
 20
0.2130000000000123
  0
LINE
  5
47
330
2
100
AcDbEntity
  8
MSK-NS-SCRATCH
100
AcDbLine
 10
0.3548425196852056
 20
0.0000000000000122
 30
-0.0000000000000001
 11
0.6648425196852062
 21
0.0000000000000122
 31
-0.0000000000000001
  0
TEXT
  5
48
330
2
100
AcDbEntity
  8
SLK-NS
100
AcDbText
 10
0.3186944582694773
 20
0.6923426383582515
 30
-0.0000000000000002
 40
0.035
  1
100435 REV 1
100
AcDbText
  0
CIRCLE
  5
4C
330
2
100
AcDbEntity
  8
ZDRILL
100
AcDbCircle
 10
0.5428425196476825
 20
0.4200314960626324
 30
0.0
 40
0.0075
  0
LWPOLYLINE
  5
4E
330
2
100
AcDbEntity
  8
SCRATCH1
100
AcDbPolyline
 90
        6
 70
     1
 43
0.0
 10
0.5354330708538316
 20
0.5157795275587612
 10
0.5354330708538316
 20
0.557055118109888
 10
0.5433070866017902
 20
0.557055118109888
 10
0.5433070866017902
 20
0.5236535433067198
 10
0.5767086614049513
 20
0.5236535433067198
 10
0.5767086614049513
 20
0.5157795275587612
  0
LWPOLYLINE
  5
50
330
2
100
AcDbEntity
  8
SCRATCH1
100
AcDbPolyline
 90
        6
 70
     1
 43
0.0
 10
0.5354330708538316
 20
0.4645984251964686
 10
0.5354330708538316
 20
0.4233228346453418
 10
0.5433070866017902
 20
0.4233228346453418
 10
0.5433070866017902
 20
0.45672440944851
 10
0.5767086614049513
 20
0.45672440944851
 10
0.5767086614049513
 20
0.4645984251964686
  0
LWPOLYLINE
  5
51
330
2
100
AcDbEntity
  8
MSK-NS-SCRATCH
100
AcDbPolyline
 90
        8
 70
     1
 43
0.0
 10
0.5423700787278003
 20
0.5118425196846993
 10
0.5423700787278003
 20
0.4685354330705297
 42
-0.4142135623730774
 10
0.5314960629797705
 20
0.4576614173225007
 10
0.4881889763655929
 20
0.4576614173224998
 42
-0.4142135623730774
 10
0.4773149606175631
 20
0.4685354330705297
 10
0.4773149606175631
 20
0.5118425196846993
 42
-0.4142135623730415
 10
0.4881889763655911
 20
0.5227165354327362
 10
0.5314960629797723
 20
0.5227165354327371
 42
-0.4142135623730533
  0
CIRCLE
  5
52
330
2
100
AcDbEntity
  8
ZDRILL
100
AcDbCircle
 10
0.5428425196476825
 20
0.340031496062634
 30
0.0
 40
0.0075
  0
CIRCLE
  5
53
330
2
100
AcDbEntity
  8
ZDRILL
100
AcDbCircle
 10
0.5428425196476825
 20
0.3000314960626349
 30
0.0
 40
0.0075
  0
CIRCLE
  5
54
330
2
100
AcDbEntity
  8
ZDRILL
100
AcDbCircle
 10
0.5428425196602094
 20
0.260214734083658
 30
0.0
 40
0.0075
  0
CIRCLE
  5
55
330
2
100
AcDbEntity
  8
ZDRILL
100
AcDbCircle
 10
0.5428425196602094
 20
0.2202147340836589
 30
0.0
 40
0.0075
  0
CIRCLE
  5
56
330
2
100
AcDbEntity
  8
ZDRILL
100
AcDbCircle
 10
0.5428425196602094
 20
0.1802147340836597
 30
0.0
 40
0.0075
  0
CIRCLE
  5
57
330
2
100
AcDbEntity
  8
ZDRILL
100
AcDbCircle
 10
0.5428425196476825
 20
0.3800314960626332
 30
0.0
 40
0.0075
  0
CIRCLE
  5
58
330
2
100
AcDbEntity
  8
ZDRILL
100
AcDbCircle
 10
0.5428425196602094
 20
0.1002147340836614
 30
0.0
 40
0.0075
  0
CIRCLE
  5
59
330
2
100
AcDbEntity
  8
ZDRILL
100
AcDbCircle
 10
0.5428425196602094
 20
0.1402147340836606
 30
0.0
 40
0.0075
  0
CIRCLE
  5
5A
330
2
100
AcDbEntity
  8
ZDRILL
100
AcDbCircle
 10
0.5428425196602094
 20
0.0202147340836632
 30
0.0
 40
0.0075
  0
CIRCLE
  5
5B
330
2
100
AcDbEntity
  8
ZDRILL
100
AcDbCircle
 10
0.5428425196602094
 20
0.0602147340836623
 30
0.0
 40
0.0075
  0
LWPOLYLINE
  5
5C
330
2
100
AcDbEntity
  8
lay1
100
AcDbPolyline
 90
        6
 70
     1
 43
0.0
 10
0.5043425196602103
 20
0.0020000000000004
 10
0.502342519684075
 20
0.0419999999999996
 10
0.5023425196351968
 20
0.4478503937004412
 10
0.5173425196351973
 20
0.4478503937004412
 10
0.5173425196840756
 20
0.0419999999777241
 10
0.515342519660206
 20
0.0020000000000004
  0
CIRCLE
  5
5D
330
2
100
AcDbEntity
  8
ZDRILL
100
AcDbCircle
 10
0.0400000000001626
 20
0.0470572537937037
 30
0.0
 40
0.0075
  0
CIRCLE
  5
5E
330
2
100
AcDbEntity
  8
ZDRILL
100
AcDbCircle
 10
0.0400000000001626
 20
0.1470572537937052
 30
0.0
 40
0.0075
  0
CIRCLE
  5
5F
330
2
100
AcDbEntity
  8
ZDRILL
100
AcDbCircle
 10
0.140000000000164
 20
0.1470572537937052
 30
0.0
 40
0.0075
  0
CIRCLE
  5
60
330
2
100
AcDbEntity
  8
ZDRILL
100
AcDbCircle
 10
0.2400000000001654
 20
0.1470572537937052
 30
0.0
 40
0.0075
  0
CIRCLE
  5
61
330
2
100
AcDbEntity
  8
ZDRILL
100
AcDbCircle
 10
0.2400000000001654
 20
0.0470572537937037
 30
0.0
 40
0.0075
  0
CIRCLE
  5
62
330
2
100
AcDbEntity
  8
ZDRILL
100
AcDbCircle
 10
0.2400000000001654
 20
0.0470572537937037
 30
0.0
 40
0.0075
  0
CIRCLE
  5
63
330
2
100
AcDbEntity
  8
ZDRILL
100
AcDbCircle
 10
0.2400000000001654
 20
0.1470572537937052
 30
0.0
 40
0.0075
  0
CIRCLE
  5
64
330
2
100
AcDbEntity
  8
ZDRILL
100
AcDbCircle
 10
0.140000000000164
 20
0.0470572537937037
 30
0.0
 40
0.0075
  0
CIRCLE
  5
65
330
2
100
AcDbEntity
  8
ZDRILL
100
AcDbCircle
 10
0.1099999999692978
 20
0.3026889763776133
 30
-0.0000000000000002
 40
0.0405
  0
CIRCLE
  5
66
330
2
100
AcDbEntity
  8
ZDRILL
100
AcDbCircle
 10
0.0399999999876366
 20
0.2068740157726923
 30
0.0
 40
0.0075
  0
CIRCLE
  5
67
330
2
100
AcDbEntity
  8
ZDRILL
100
AcDbCircle
 10
0.2399999999876394
 20
0.2068740157726923
 30
0.0
 40
0.0075
  0
CIRCLE
  5
68
330
2
100
AcDbEntity
  8
ZDRILL
100
AcDbCircle
 10
0.2399999999876394
 20
0.3068740157726937
 30
0.0
 40
0.0075
  0
CIRCLE
  5
69
330
2
100
AcDbEntity
  8
ZDRILL
100
AcDbCircle
 10
0.139999999987638
 20
0.2068740157726923
 30
0.0
 40
0.0075
  0
CIRCLE
  5
6A
330
2
100
AcDbEntity
  8
ZDRILL
100
AcDbCircle
 10
0.3223425196852085
 20
0.1100000000000036
 30
-0.0000000000000001
 40
0.0405
  0
CIRCLE
  5
6B
330
2
100
AcDbEntity
  8
ZDRILL
100
AcDbCircle
 10
0.4768425196602104
 20
0.1002147340836614
 30
0.0
 40
0.0075
  0
CIRCLE
  5
6C
330
2
100
AcDbEntity
  8
ZDRILL
100
AcDbCircle
 10
0.4768425196602104
 20
0.1402147340836606
 30
0.0
 40
0.0075
  0
CIRCLE
  5
6D
330
2
100
AcDbEntity
  8
ZDRILL
100
AcDbCircle
 10
0.4768425196602104
 20
0.0202147340836632
 30
0.0
 40
0.0075
  0
CIRCLE
  5
6E
330
2
100
AcDbEntity
  8
ZDRILL
100
AcDbCircle
 10
0.4768425196602104
 20
0.0602147340836623
 30
0.0
 40
0.0075
  0
CIRCLE
  5
6F
330
2
100
AcDbEntity
  8
ZDRILL
100
AcDbCircle
 10
0.4114832628891146
 20
0.1470572537937052
 30
0.0
 40
0.0075
  0
CIRCLE
  5
70
330
2
100
AcDbEntity
  8
ZDRILL
100
AcDbCircle
 10
0.4114832628891146
 20
0.0470572537937037
 30
0.0
 40
0.0075
  0
CIRCLE
  5
71
330
2
100
AcDbEntity
  8
ZDRILL
100
AcDbCircle
 10
0.3399999999876408
 20
0.2068740157726923
 30
0.0
 40
0.0075
  0
CIRCLE
  5
72
330
2
100
AcDbEntity
  8
ZDRILL
100
AcDbCircle
 10
0.3399999999876408
 20
0.3068740157726937
 30
0.0
 40
0.0075
  0
CIRCLE
  5
73
330
2
100
AcDbEntity
  8
ZDRILL
100
AcDbCircle
 10
0.4768425196476836
 20
0.340031496062634
 30
0.0
 40
0.0075
  0
CIRCLE
  5
74
330
2
100
AcDbEntity
  8
ZDRILL
100
AcDbCircle
 10
0.4768425196476836
 20
0.3000314960626349
 30
0.0
 40
0.0075
  0
CIRCLE
  5
75
330
2
100
AcDbEntity
  8
ZDRILL
100
AcDbCircle
 10
0.4768425196602104
 20
0.260214734083658
 30
0.0
 40
0.0075
  0
CIRCLE
  5
76
330
2
100
AcDbEntity
  8
ZDRILL
100
AcDbCircle
 10
0.4768425196602104
 20
0.2202147340836589
 30
0.0
 40
0.0075
  0
CIRCLE
  5
77
330
2
100
AcDbEntity
  8
ZDRILL
100
AcDbCircle
 10
0.4768425196602104
 20
0.1802147340836597
 30
0.0
 40
0.0075
  0
CIRCLE
  5
78
330
2
100
AcDbEntity
  8
ZDRILL
100
AcDbCircle
 10
0.4399999999876352
 20
0.2068740157726923
 30
0.0
 40
0.0075
  0
CIRCLE
  5
79
330
2
100
AcDbEntity
  8
ZDRILL
100
AcDbCircle
 10
0.4399999999876352
 20
0.3068740157726937
 30
0.0
 40
0.0075
  0
LWPOLYLINE
  5
7A
330
2
100
AcDbEntity
  8
lay1
100
AcDbPolyline
 90
        6
 70
     1
 43
0.0
 10
0.0019999999876328
 20
0.4846889763526166
 10
0.0419999999876319
 20
0.4826889763764813
 10
0.4675039370017844
 20
0.4826889763776537
 10
0.4675039370017844
 20
0.4976889763648752
 10
0.0419999999653564
 20
0.4976889763764837
 10
0.0019999999876328
 20
0.4956889763526141
  0
CIRCLE
  5
7B
330
2
100
AcDbEntity
  8
ZDRILL
100
AcDbCircle
 10
0.0999999999876318
 20
0.4571889763526168
 30
0.0
 40
0.0075
  0
CIRCLE
  5
7C
330
2
100
AcDbEntity
  8
ZDRILL
100
AcDbCircle
 10
0.0999999999876318
 20
0.5231889763526157
 30
0.0
 40
0.0075
  0
CIRCLE
  5
7D
330
2
100
AcDbEntity
  8
ZDRILL
100
AcDbCircle
 10
0.0399999999876366
 20
0.387188976402612
 30
0.0
 40
0.0075
  0
CIRCLE
  5
7E
330
2
100
AcDbEntity
  8
ZDRILL
100
AcDbCircle
 10
0.0199999999876335
 20
0.4571889763526168
 30
0.0
 40
0.0075
  0
CIRCLE
  5
7F
330
2
100
AcDbEntity
  8
ZDRILL
100
AcDbCircle
 10
0.0199999999876335
 20
0.5231889763526157
 30
0.0
 40
0.0075
  0
CIRCLE
  5
80
330
2
100
AcDbEntity
  8
ZDRILL
100
AcDbCircle
 10
0.0599999999876326
 20
0.4571889763526168
 30
0.0
 40
0.0075
  0
CIRCLE
  5
81
330
2
100
AcDbEntity
  8
ZDRILL
100
AcDbCircle
 10
0.0599999999876326
 20
0.5231889763526157
 30
0.0
 40
0.0075
  0
CIRCLE
  5
82
330
2
100
AcDbEntity
  8
ZDRILL
100
AcDbCircle
 10
0.2199999999876292
 20
0.4571889763526168
 30
0.0
 40
0.0075
  0
CIRCLE
  5
83
330
2
100
AcDbEntity
  8
ZDRILL
100
AcDbCircle
 10
0.2199999999876292
 20
0.5231889763526157
 30
0.0
 40
0.0075
  0
CIRCLE
  5
84
330
2
100
AcDbEntity
  8
ZDRILL
100
AcDbCircle
 10
0.2399999999876394
 20
0.4068740157726934
 30
0.0
 40
0.0075
  0
CIRCLE
  5
85
330
2
100
AcDbEntity
  8
ZDRILL
100
AcDbCircle
 10
0.17999999998763
 20
0.4571889763526168
 30
0.0
 40
0.0075
  0
CIRCLE
  5
86
330
2
100
AcDbEntity
  8
ZDRILL
100
AcDbCircle
 10
0.17999999998763
 20
0.5231889763526157
 30
0.0
 40
0.0075
  0
CIRCLE
  5
87
330
2
100
AcDbEntity
  8
ZDRILL
100
AcDbCircle
 10
0.139999999987638
 20
0.387188976402612
 30
0.0
 40
0.0075
  0
CIRCLE
  5
88
330
2
100
AcDbEntity
  8
ZDRILL
100
AcDbCircle
 10
0.1399999999876309
 20
0.4571889763526168
 30
0.0
 40
0.0075
  0
CIRCLE
  5
89
330
2
100
AcDbEntity
  8
ZDRILL
100
AcDbCircle
 10
0.1399999999876309
 20
0.5231889763526157
 30
0.0
 40
0.0075
  0
CIRCLE
  5
8A
330
2
100
AcDbEntity
  8
ZDRILL
100
AcDbCircle
 10
0.1099999999692978
 20
0.6776889763776131
 30
-0.0000000000000002
 40
0.0405
  0
CIRCLE
  5
8B
330
2
100
AcDbEntity
  8
ZDRILL
100
AcDbCircle
 10
0.0399999999876366
 20
0.5931889763526124
 30
0.0
 40
0.0075
  0
CIRCLE
  5
8C
330
2
100
AcDbEntity
  8
ZDRILL
100
AcDbCircle
 10
0.2399999999876394
 20
0.7228740157226954
 30
0.0
 40
0.0075
  0
CIRCLE
  5
8D
330
2
100
AcDbEntity
  8
ZDRILL
100
AcDbCircle
 10
0.2399999999876394
 20
0.622874015722694
 30
0.0
 40
0.0075
  0
CIRCLE
  5
8E
330
2
100
AcDbEntity
  8
ZDRILL
100
AcDbCircle
 10
0.139999999987638
 20
0.5931889763526124
 30
0.0
 40
0.0075
  0
LWPOLYLINE
  5
8F
330
2
100
AcDbEntity
  8
MSK-NS-SCRATCH
100
AcDbPolyline
 90
        4
 70
     1
 43
0.0
 10
0.4980629921135576
 20
0.5650866141732502
 10
0.4980629921135789
 20
0.5324960629921487
 10
0.4822519684915223
 20
0.532496062992138
 10
0.482251968491501
 20
0.5650866141732396
  0
LWPOLYLINE
  5
90
330
2
100
AcDbEntity
  8
MSK-NS-SCRATCH
100
AcDbPolyline
 90
        4
 70
     1
 43
0.0
 10
0.5177480314836318
 20
0.5650866141732502
 10
0.5177480314836532
 20
0.5324960629921487
 10
0.5019370078615966
 20
0.532496062992138
 10
0.5019370078615753
 20
0.5650866141732396
  0
LWPOLYLINE
  5
91
330
2
100
AcDbEntity
  8
SCRATCH1
100
AcDbPolyline
 90
        6
 70
     1
 43
0.0
 10
0.4842519684915319
 20
0.5157795275587612
 10
0.4842519684915319
 20
0.557055118109888
 10
0.4763779527435732
 20
0.557055118109888
 10
0.4763779527435732
 20
0.5236535433067198
 10
0.4429763779404122
 20
0.5236535433067198
 10
0.4429763779404122
 20
0.5157795275587612
  0
LWPOLYLINE
  5
92
330
2
100
AcDbEntity
  8
SCRATCH1
100
AcDbPolyline
 90
        4
 70
     1
 43
0.0
 10
0.5157480314837502
 20
0.5207165354327346
 10
0.5236220472317088
 20
0.5207165354327346
 10
0.5236220472317088
 20
0.557055118109888
 10
0.5157480314837502
 20
0.557055118109888
  0
LWPOLYLINE
  5
93
330
2
100
AcDbEntity
  8
SCRATCH1
100
AcDbPolyline
 90
        4
 70
     1
 43
0.0
 10
0.5039370078616133
 20
0.5207165354327346
 10
0.4960629921136546
 20
0.5207165354327346
 10
0.4960629921136546
 20
0.557055118109888
 10
0.5039370078616133
 20
0.557055118109888
  0
CIRCLE
  5
94
330
2
100
AcDbEntity
  8
ZDRILL
100
AcDbCircle
 10
0.3799999999876258
 20
0.4571889763526168
 30
0.0
 40
0.0075
  0
CIRCLE
  5
95
330
2
100
AcDbEntity
  8
ZDRILL
100
AcDbCircle
 10
0.3799999999876258
 20
0.5231889763526157
 30
0.0
 40
0.0075
  0
CIRCLE
  5
96
330
2
100
AcDbEntity
  8
ZDRILL
100
AcDbCircle
 10
0.3399999999876266
 20
0.4571889763526168
 30
0.0
 40
0.0075
  0
CIRCLE
  5
97
330
2
100
AcDbEntity
  8
ZDRILL
100
AcDbCircle
 10
0.3399999999876266
 20
0.5231889763526157
 30
0.0
 40
0.0075
  0
CIRCLE
  5
98
330
2
100
AcDbEntity
  8
ZDRILL
100
AcDbCircle
 10
0.3399999999876337
 20
0.4068740157726934
 30
0.0
 40
0.0075
  0
CIRCLE
  5
99
330
2
100
AcDbEntity
  8
ZDRILL
100
AcDbCircle
 10
0.2999999999876275
 20
0.4571889763526168
 30
0.0
 40
0.0075
  0
CIRCLE
  5
9A
330
2
100
AcDbEntity
  8
ZDRILL
100
AcDbCircle
 10
0.2999999999876275
 20
0.5231889763526157
 30
0.0
 40
0.0075
  0
CIRCLE
  5
9B
330
2
100
AcDbEntity
  8
ZDRILL
100
AcDbCircle
 10
0.2599999999876283
 20
0.4571889763526168
 30
0.0
 40
0.0075
  0
CIRCLE
  5
9C
330
2
100
AcDbEntity
  8
ZDRILL
100
AcDbCircle
 10
0.2599999999876283
 20
0.5231889763526157
 30
0.0
 40
0.0075
  0
LWPOLYLINE
  5
9D
330
2
100
AcDbEntity
  8
MSK-NS-SCRATCH
100
AcDbPolyline
 90
        4
 70
     1
 43
0.0
 10
0.5177480314836922
 20
0.4152913385819794
 10
0.5177480314836922
 20
0.447881889763081
 10
0.5019370078616357
 20
0.447881889763081
 10
0.5019370078616357
 20
0.4152913385819794
  0
LWPOLYLINE
  5
9E
330
2
100
AcDbEntity
  8
MSK-NS-SCRATCH
100
AcDbPolyline
 90
        4
 70
     1
 43
0.0
 10
0.4980629921136109
 20
0.4152913385819794
 10
0.4980629921136109
 20
0.447881889763081
 10
0.4822519684915543
 20
0.447881889763081
 10
0.4822519684915543
 20
0.4152913385819794
  0
LWPOLYLINE
  5
9F
330
2
100
AcDbEntity
  8
MSK-NS-SCRATCH
100
AcDbPolyline
 90
        4
 70
     1
 43
0.0
 10
0.4675354330581519
 20
0.4625984251964911
 10
0.4349448818770503
 20
0.4625984251964911
 10
0.4349448818770503
 20
0.4784094488185476
 10
0.4675354330581519
 20
0.4784094488185476
  0
LWPOLYLINE
  5
A0
330
2
100
AcDbEntity
  8
MSK-NS-SCRATCH
100
AcDbPolyline
 90
        4
 70
     1
 43
0.0
 10
0.4675354330581519
 20
0.4822834645665724
 10
0.4349448818770503
 20
0.4822834645665724
 10
0.4349448818770503
 20
0.498094488188629
 10
0.4675354330581519
 20
0.498094488188629
  0
LWPOLYLINE
  5
A1
330
2
100
AcDbEntity
  8
MSK-NS-SCRATCH
100
AcDbPolyline
 90
        5
 70
     1
 43
0.0
 10
0.4349448818770503
 20
0.5177795275587068
 10
0.4655354330581618
 20
0.5177795275587068
 10
0.4675354330581607
 20
0.515779527558707
 10
0.4675354330581519
 20
0.5019685039366502
 10
0.4349448818770503
 20
0.5019685039366502
  0
LINE
  5
A2
330
2
100
AcDbEntity
  8
lay1
100
AcDbLine
 10
0.5186220472317347
 20
0.4536503937004819
 30
-0.0000000000000001
 11
0.5031370078615014
 21
0.4536503937004824
 31
-0.0000000000000001
  0
CIRCLE
  5
A3
330
2
100
AcDbEntity
  8
ZDRILL
100
AcDbCircle
 10
0.4768425196476836
 20
0.4200314960626324
 30
0.0
 40
0.0075
  0
CIRCLE
  5
A4
330
2
100
AcDbEntity
  8
ZDRILL
100
AcDbCircle
 10
0.4599999999876241
 20
0.5231889763526157
 30
0.0
 40
0.0075
  0
CIRCLE
  5
A5
330
2
100
AcDbEntity
  8
ZDRILL
100
AcDbCircle
 10
0.4599999999876241
 20
0.4571889763526168
 30
0.0
 40
0.0075
  0
CIRCLE
  5
A6
330
2
100
AcDbEntity
  8
ZDRILL
100
AcDbCircle
 10
0.419999999987625
 20
0.5231889763526157
 30
0.0
 40
0.0075
  0
CIRCLE
  5
A7
330
2
100
AcDbEntity
  8
ZDRILL
100
AcDbCircle
 10
0.419999999987625
 20
0.4571889763526168
 30
0.0
 40
0.0075
  0
LWPOLYLINE
  5
A8
330
2
100
AcDbEntity
  8
SCRATCH1
100
AcDbPolyline
 90
        6
 70
     1
 43
0.0
 10
0.4842519684915319
 20
0.4645984251964686
 10
0.4842519684915319
 20
0.4233228346453418
 10
0.4763779527435732
 20
0.4233228346453418
 10
0.4763779527435732
 20
0.45672440944851
 10
0.4429763779404122
 20
0.45672440944851
 10
0.4429763779404122
 20
0.4645984251964686
  0
LINE
  5
A9
330
2
100
AcDbEntity
  8
SLK-NS
100
AcDbLine
 10
0.4407874015624449
 20
0.4211338582673814
 30
-0.0000000000000001
 11
0.4407874015624378
 21
0.4385105257626356
 31
-0.0000000000000001
  0
LINE
  5
AA
330
2
100
AcDbEntity
  8
SLK-NS
100
AcDbLine
 10
0.4407874015624449
 20
0.4211338582673814
 30
-0.0000000000000001
 11
0.4607874015624267
 21
0.4211338582673814
 31
-0.0000000000000001
  0
CIRCLE
  5
AB
330
2
100
AcDbEntity
  8
ZDRILL
100
AcDbCircle
 10
0.5098425196726817
 20
0.4901889763776149
 30
-0.0000000000000001
 40
0.0075
  0
CIRCLE
  5
AC
330
2
100
AcDbEntity
  8
ZDRILL
100
AcDbCircle
 10
0.5273425196726853
 20
0.5076889763776109
 30
-0.0000000000000001
 40
0.0075
  0
CIRCLE
  5
AD
330
2
100
AcDbEntity
  8
ZDRILL
100
AcDbCircle
 10
0.5273425196726853
 20
0.4726889763776187
 30
-0.0000000000000001
 40
0.0075
  0
CIRCLE
  5
AE
330
2
100
AcDbEntity
  8
ZDRILL
100
AcDbCircle
 10
0.4923425196726781
 20
0.5076889763776109
 30
-0.0000000000000001
 40
0.0075
  0
CIRCLE
  5
AF
330
2
100
AcDbEntity
  8
ZDRILL
100
AcDbCircle
 10
0.4923425196726781
 20
0.4726889763776187
 30
-0.0000000000000001
 40
0.0075
  0
CIRCLE
  5
B0
330
2
100
AcDbEntity
  8
ZDRILL
100
AcDbCircle
 10
0.4768425196476836
 20
0.3800314960626332
 30
0.0
 40
0.0075
  0
TEXT
  5
B1
330
2
100
AcDbEntity
  8
SLK-NS
100
AcDbText
 10
0.3652193013327958
 20
0.5872609829306671
 30
-0.0000000000000002
 40
0.04
  1
U1
100
AcDbText
  0
CIRCLE
  5
B2
330
2
100
AcDbEntity
  8
ZDRILL
100
AcDbCircle
 10
0.3399999999876408
 20
0.622874015722694
 30
0.0
 40
0.0075
  0
CIRCLE
  5
B3
330
2
100
AcDbEntity
  8
ZDRILL
100
AcDbCircle
 10
0.3399999999876408
 20
0.7228740157226954
 30
0.0
 40
0.0075
  0
CIRCLE
  5
B4
330
2
100
AcDbEntity
  8
ZDRILL
100
AcDbCircle
 10
0.4743704214555473
 20
0.5787684683520914
 30
-0.0000000000000001
 40
0.0075
  0
CIRCLE
  5
B5
330
2
100
AcDbEntity
  8
ZDRILL
100
AcDbCircle
 10
0.5098425196726817
 20
0.5787684683520914
 30
-0.0000000000000001
 40
0.0075
  0
CIRCLE
  5
B6
330
2
100
AcDbEntity
  8
ZDRILL
100
AcDbCircle
 10
0.4399999999876423
 20
0.622874015722694
 30
0.0
 40
0.0075
  0
CIRCLE
  5
B7
330
2
100
AcDbEntity
  8
ZDRILL
100
AcDbCircle
 10
0.4399999999876423
 20
0.7228740157226954
 30
0.0
 40
0.0075
  0
LINE
  5
B8
330
2
100
AcDbEntity
  8
SLK-NS
100
AcDbLine
 10
0.4407874015624449
 20
0.5592440944878483
 30
-0.0000000000000001
 11
0.4407874015624378
 21
0.5418674269925941
 31
-0.0000000000000001
  0
LINE
  5
B9
330
2
100
AcDbEntity
  8
SLK-NS
100
AcDbLine
 10
0.4407874015624449
 20
0.5592440944878483
 30
-0.0000000000000001
 11
0.4607874015624267
 21
0.5592440944878483
 31
-0.0000000000000001
  0
CIRCLE
  5
BA
330
2
100
AcDbEntity
  8
SLK-NS
100
AcDbCircle
 10
0.4073592780508255
 20
0.5610740727530839
 30
-0.0000000000000001
 40
0.0125195524753247
  0
CIRCLE
  5
BB
330
2
100
AcDbEntity
  8
ZDRILL
100
AcDbCircle
 10
0.6973425196852086
 20
0.1100000000000036
 30
-0.0000000000000001
 40
0.0405
  0
CIRCLE
  5
BC
330
2
100
AcDbEntity
  8
ZDRILL
100
AcDbCircle
 10
0.5885167371112355
 20
0.0470572537937037
 30
0.0
 40
0.0075
  0
CIRCLE
  5
BD
330
2
100
AcDbEntity
  8
ZDRILL
100
AcDbCircle
 10
0.5885167371112355
 20
0.1470572537937052
 30
0.0
 40
0.0075
  0
CIRCLE
  5
BE
330
2
100
AcDbEntity
  8
ZDRILL
100
AcDbCircle
 10
0.7600000000001766
 20
0.1470572537937052
 30
0.0
 40
0.0075
  0
CIRCLE
  5
BF
330
2
100
AcDbEntity
  8
ZDRILL
100
AcDbCircle
 10
0.7600000000001766
 20
0.0470572537937037
 30
0.0
 40
0.0075
  0
CIRCLE
  5
C0
330
2
100
AcDbEntity
  8
ZDRILL
100
AcDbCircle
 10
0.7600000000001766
 20
0.0470572537937037
 30
0.0
 40
0.0075
  0
CIRCLE
  5
C1
330
2
100
AcDbEntity
  8
ZDRILL
100
AcDbCircle
 10
0.7600000000001766
 20
0.1470572537937052
 30
0.0
 40
0.0075
  0
TEXT
  5
C2
330
2
100
AcDbEntity
  8
SLK-NS
100
AcDbText
 10
0.6266484392873038
 20
0.3011147179507196
 30
0.0000000000000001
 40
0.04
  1
J3
100
AcDbText
  0
TEXT
  5
C3
330
2
100
AcDbEntity
  8
SLK-NS
100
AcDbText
 10
0.6393373465807271
 20
0.2374648331042926
 30
0.0000000000000001
 40
0.04
  1
IF
100
AcDbText
  0
CIRCLE
  5
C4
330
2
100
AcDbEntity
  8
ZDRILL
100
AcDbCircle
 10
0.5923497207494473
 20
0.206874015772694
 30
0.0
 40
0.0075
  0
CIRCLE
  5
C5
330
2
100
AcDbEntity
  8
ZDRILL
100
AcDbCircle
 10
0.5923497207494544
 20
0.3068740157726937
 30
0.0
 40
0.0075
  0
CIRCLE
  5
C6
330
2
100
AcDbEntity
  8
ZDRILL
100
AcDbCircle
 10
0.6599999999876483
 20
0.3068740157726937
 30
0.0
 40
0.0075
  0
CIRCLE
  5
C7
330
2
100
AcDbEntity
  8
ZDRILL
100
AcDbCircle
 10
0.7599999999876497
 20
0.3068740157726937
 30
0.0
 40
0.0075
  0
CIRCLE
  5
C8
330
2
100
AcDbEntity
  8
ZDRILL
100
AcDbCircle
 10
0.7599999999876497
 20
0.2068740157726923
 30
0.0
 40
0.0075
  0
CIRCLE
  5
C9
330
2
100
AcDbEntity
  8
ZDRILL
100
AcDbCircle
 10
0.8600000000001779
 20
0.1470572537937052
 30
0.0
 40
0.0075
  0
CIRCLE
  5
CA
330
2
100
AcDbEntity
  8
ZDRILL
100
AcDbCircle
 10
0.9600000000001793
 20
0.0470572537937037
 30
0.0
 40
0.0075
  0
CIRCLE
  5
CB
330
2
100
AcDbEntity
  8
ZDRILL
100
AcDbCircle
 10
0.9600000000001793
 20
0.1470572537937052
 30
0.0
 40
0.0075
  0
CIRCLE
  5
CC
330
2
100
AcDbEntity
  8
ZDRILL
100
AcDbCircle
 10
0.8600000000001779
 20
0.0470572537937037
 30
0.0
 40
0.0075
  0
CIRCLE
  5
CD
330
2
100
AcDbEntity
  8
ZDRILL
100
AcDbCircle
 10
0.9599999999876525
 20
0.2068740157726923
 30
0.0
 40
0.0075
  0
CIRCLE
  5
CE
330
2
100
AcDbEntity
  8
ZDRILL
100
AcDbCircle
 10
0.859999999987651
 20
0.2068740157726923
 30
0.0
 40
0.0075
  0
CIRCLE
  5
CF
330
2
100
AcDbEntity
  8
ZDRILL
100
AcDbCircle
 10
0.8900000000001773
 20
0.3026889763776133
 30
-0.0000000000000002
 40
0.0405
  0
LWPOLYLINE
  5
D0
330
2
100
AcDbEntity
  8
lay1
100
AcDbPolyline
 90
        6
 70
     1
 43
0.0
 10
0.9579999999876571
 20
0.4826889763764813
 10
0.5521811023498531
 20
0.4826889763654072
 10
0.5521811023498531
 20
0.4976889763654072
 10
0.9580000000099326
 20
0.4976889763764837
 10
0.9979999999876563
 20
0.4956889763526141
 10
0.9979999999876563
 20
0.4846889763526166
  0
CIRCLE
  5
D1
330
2
100
AcDbEntity
  8
ZDRILL
100
AcDbCircle
 10
0.819999999987659
 20
0.5231889763526157
 30
0.0
 40
0.0075
  0
CIRCLE
  5
D2
330
2
100
AcDbEntity
  8
ZDRILL
100
AcDbCircle
 10
0.819999999987659
 20
0.4571889763526168
 30
0.0
 40
0.0075
  0
LWPOLYLINE
  5
D3
330
2
100
AcDbEntity
  8
MSK-NS-SCRATCH
100
AcDbPolyline
 90
        4
 70
     1
 43
0.0
 10
0.5521496062872116
 20
0.4625984251964911
 10
0.5847401574683131
 20
0.4625984251964911
 10
0.5847401574683131
 20
0.4784094488185476
 10
0.5521496062872116
 20
0.4784094488185476
  0
LWPOLYLINE
  5
D4
330
2
100
AcDbEntity
  8
MSK-NS-SCRATCH
100
AcDbPolyline
 90
        4
 70
     1
 43
0.0
 10
0.5521496062872116
 20
0.4822834645665724
 10
0.5847401574683131
 20
0.4822834645665724
 10
0.5847401574683131
 20
0.498094488188629
 10
0.5521496062872116
 20
0.498094488188629
  0
LWPOLYLINE
  5
D5
330
2
100
AcDbEntity
  8
MSK-NS-SCRATCH
100
AcDbPolyline
 90
        5
 70
     1
 43
0.0
 10
0.5847401574683131
 20
0.5177795275587068
 10
0.5541496062872123
 20
0.5177795275587059
 10
0.5521496062872116
 20
0.5157795275587061
 10
0.5521496062872116
 20
0.5019685039366502
 10
0.5847401574683131
 20
0.5019685039366502
  0
CIRCLE
  5
D6
330
2
100
AcDbEntity
  8
ZDRILL
100
AcDbCircle
 10
0.5799999999876642
 20
0.5231889763526157
 30
0.0
 40
0.0075
  0
CIRCLE
  5
D7
330
2
100
AcDbEntity
  8
ZDRILL
100
AcDbCircle
 10
0.5799999999876642
 20
0.4571889763526168
 30
0.0
 40
0.0075
  0
CIRCLE
  5
D8
330
2
100
AcDbEntity
  8
ZDRILL
100
AcDbCircle
 10
0.6199999999876633
 20
0.5231889763526157
 30
0.0
 40
0.0075
  0
CIRCLE
  5
D9
330
2
100
AcDbEntity
  8
ZDRILL
100
AcDbCircle
 10
0.6199999999876633
 20
0.4571889763526168
 30
0.0
 40
0.0075
  0
LINE
  5
DA
330
2
100
AcDbEntity
  8
SLK-NS
100
AcDbLine
 10
0.5788976377829185
 20
0.4211338582673814
 30
-0.0000000000000001
 11
0.5788976377829256
 21
0.4385105257626356
 31
-0.0000000000000001
  0
LINE
  5
DB
330
2
100
AcDbEntity
  8
SLK-NS
100
AcDbLine
 10
0.5788976377829185
 20
0.4211338582673814
 30
-0.0000000000000001
 11
0.5588976377829367
 21
0.4211338582673814
 31
-0.0000000000000001
  0
CIRCLE
  5
DC
330
2
100
AcDbEntity
  8
ZDRILL
100
AcDbCircle
 10
0.5923497207494615
 20
0.4068740157726934
 30
0.0
 40
0.0075
  0
CIRCLE
  5
DD
330
2
100
AcDbEntity
  8
ZDRILL
100
AcDbCircle
 10
0.6599999999876554
 20
0.4068740157726934
 30
0.0
 40
0.0075
  0
CIRCLE
  5
DE
330
2
100
AcDbEntity
  8
ZDRILL
100
AcDbCircle
 10
0.6599999999876625
 20
0.5231889763526157
 30
0.0
 40
0.0075
  0
CIRCLE
  5
DF
330
2
100
AcDbEntity
  8
ZDRILL
100
AcDbCircle
 10
0.6599999999876625
 20
0.4571889763526168
 30
0.0
 40
0.0075
  0
CIRCLE
  5
E0
330
2
100
AcDbEntity
  8
ZDRILL
100
AcDbCircle
 10
0.7599999999876497
 20
0.4068740157726934
 30
0.0
 40
0.0075
  0
CIRCLE
  5
E1
330
2
100
AcDbEntity
  8
ZDRILL
100
AcDbCircle
 10
0.7799999999876599
 20
0.5231889763526157
 30
0.0
 40
0.0075
  0
CIRCLE
  5
E2
330
2
100
AcDbEntity
  8
ZDRILL
100
AcDbCircle
 10
0.7399999999876608
 20
0.5231889763526157
 30
0.0
 40
0.0075
  0
CIRCLE
  5
E3
330
2
100
AcDbEntity
  8
ZDRILL
100
AcDbCircle
 10
0.7799999999876599
 20
0.4571889763526168
 30
0.0
 40
0.0075
  0
CIRCLE
  5
E4
330
2
100
AcDbEntity
  8
ZDRILL
100
AcDbCircle
 10
0.7399999999876608
 20
0.4571889763526168
 30
0.0
 40
0.0075
  0
CIRCLE
  5
E5
330
2
100
AcDbEntity
  8
ZDRILL
100
AcDbCircle
 10
0.6999999999876616
 20
0.5231889763526157
 30
0.0
 40
0.0075
  0
CIRCLE
  5
E6
330
2
100
AcDbEntity
  8
ZDRILL
100
AcDbCircle
 10
0.6999999999876616
 20
0.4571889763526168
 30
0.0
 40
0.0075
  0
CIRCLE
  5
E7
330
2
100
AcDbEntity
  8
ZDRILL
100
AcDbCircle
 10
0.5453146178898161
 20
0.5787684683520914
 30
-0.0000000000000001
 40
0.0075
  0
CIRCLE
  5
E8
330
2
100
AcDbEntity
  8
ZDRILL
100
AcDbCircle
 10
0.5599999999876469
 20
0.622874015722694
 30
0.0
 40
0.0075
  0
CIRCLE
  5
E9
330
2
100
AcDbEntity
  8
ZDRILL
100
AcDbCircle
 10
0.5599999999876469
 20
0.7128740157226952
 30
0.0
 40
0.0075
  0
CIRCLE
  5
EA
330
2
100
AcDbEntity
  8
ZDRILL
100
AcDbCircle
 10
0.6599999999876483
 20
0.622874015722694
 30
0.0
 40
0.0075
  0
CIRCLE
  5
EB
330
2
100
AcDbEntity
  8
ZDRILL
100
AcDbCircle
 10
0.6599999999876483
 20
0.7128740157226952
 30
0.0
 40
0.0075
  0
LINE
  5
EC
330
2
100
AcDbEntity
  8
SLK-NS
100
AcDbLine
 10
0.5788976377829185
 20
0.5592440944878483
 30
-0.0000000000000001
 11
0.5788976377829256
 21
0.5418674269925941
 31
-0.0000000000000001
  0
LINE
  5
ED
330
2
100
AcDbEntity
  8
SLK-NS
100
AcDbLine
 10
0.5788976377829185
 20
0.5592440944878483
 30
-0.0000000000000001
 11
0.5588976377829367
 21
0.5592440944878483
 31
-0.0000000000000001
  0
CIRCLE
  5
EE
330
2
100
AcDbEntity
  8
ZDRILL
100
AcDbCircle
 10
0.7599999999876497
 20
0.7128740157226952
 30
0.0
 40
0.0075
  0
CIRCLE
  5
EF
330
2
100
AcDbEntity
  8
ZDRILL
100
AcDbCircle
 10
0.7599999999876497
 20
0.622874015722694
 30
0.0
 40
0.0075
  0
CIRCLE
  5
F0
330
2
100
AcDbEntity
  8
ZDRILL
100
AcDbCircle
 10
0.9599999999876525
 20
0.387188976402612
 30
0.0
 40
0.0075
  0
CIRCLE
  5
F1
330
2
100
AcDbEntity
  8
ZDRILL
100
AcDbCircle
 10
0.8999999999876573
 20
0.5231889763526157
 30
0.0
 40
0.0075
  0
CIRCLE
  5
F2
330
2
100
AcDbEntity
  8
ZDRILL
100
AcDbCircle
 10
0.9399999999876564
 20
0.5231889763526157
 30
0.0
 40
0.0075
  0
CIRCLE
  5
F3
330
2
100
AcDbEntity
  8
ZDRILL
100
AcDbCircle
 10
0.8999999999876573
 20
0.4571889763526168
 30
0.0
 40
0.0075
  0
CIRCLE
  5
F4
330
2
100
AcDbEntity
  8
ZDRILL
100
AcDbCircle
 10
0.9399999999876564
 20
0.4571889763526168
 30
0.0
 40
0.0075
  0
CIRCLE
  5
F5
330
2
100
AcDbEntity
  8
ZDRILL
100
AcDbCircle
 10
0.859999999987651
 20
0.387188976402612
 30
0.0
 40
0.0075
  0
CIRCLE
  5
F6
330
2
100
AcDbEntity
  8
ZDRILL
100
AcDbCircle
 10
0.8599999999876581
 20
0.5231889763526157
 30
0.0
 40
0.0075
  0
CIRCLE
  5
F7
330
2
100
AcDbEntity
  8
ZDRILL
100
AcDbCircle
 10
0.8599999999876581
 20
0.4571889763526168
 30
0.0
 40
0.0075
  0
CIRCLE
  5
F8
330
2
100
AcDbEntity
  8
ZDRILL
100
AcDbCircle
 10
0.9799999999876556
 20
0.5231889763526157
 30
0.0
 40
0.0075
  0
CIRCLE
  5
F9
330
2
100
AcDbEntity
  8
ZDRILL
100
AcDbCircle
 10
0.9799999999876556
 20
0.4571889763526168
 30
0.0
 40
0.0075
  0
CIRCLE
  5
FA
330
2
100
AcDbEntity
  8
ZDRILL
100
AcDbCircle
 10
0.8900000000001773
 20
0.6776889763776131
 30
-0.0000000000000002
 40
0.0405
  0
CIRCLE
  5
FB
330
2
100
AcDbEntity
  8
ZDRILL
100
AcDbCircle
 10
0.859999999987651
 20
0.5931889763526124
 30
0.0
 40
0.0075
  0
CIRCLE
  5
FC
330
2
100
AcDbEntity
  8
ZDRILL
100
AcDbCircle
 10
0.9599999999876525
 20
0.5931889763526124
 30
0.0
 40
0.0075
  0
TEXT
  5
FD
330
2
100
AcDbEntity
  8
SLK-NS
100
AcDbText
 10
0.4399479596557337
 20
0.7877846493976242
 30
0.0000000000000001
 40
0.0573473444161733
  1
MMIC
100
AcDbText
  0
TEXT
  5
FE
330
2
100
AcDbEntity
  8
SLK-NS
100
AcDbText
 10
0.4364127310351274
 20
0.863096288024468
 30
-0.0000000000000001
 40
0.0573473444161733
  1
Custom
100
AcDbText
  0
TEXT
  5
FF
330
2
100
AcDbEntity
  8
SLK-NS
100
AcDbText
 10
0.0603130693184335
 20
0.8513008719778641
 30
0.0
 40
0.04
  1
J1
100
AcDbText
  0
TEXT
  5
100
330
2
100
AcDbEntity
  8
SLK-NS
100
AcDbText
 10
0.0614180861683531
 20
0.7801698495478993
 30
-0.0000000000000001
 40
0.04
  1
LO
100
AcDbText
  0
CIRCLE
  5
101
330
2
100
AcDbEntity
  8
ZDRILL
100
AcDbCircle
 10
0.0399999999876366
 20
0.7876912181800363
 30
0.0
 40
0.0075
  0
CIRCLE
  5
102
330
2
100
AcDbEntity
  8
ZDRILL
100
AcDbCircle
 10
0.0399999999876366
 20
0.8528740157227005
 30
0.0
 40
0.0075
  0
CIRCLE
  5
103
330
2
100
AcDbEntity
  8
ZDRILL
100
AcDbCircle
 10
0.139999999987638
 20
0.8528740157227005
 30
0.0
 40
0.0075
  0
CIRCLE
  5
104
330
2
100
AcDbEntity
  8
ZDRILL
100
AcDbCircle
 10
0.139999999987638
 20
0.7876912181800363
 30
0.0
 40
0.0075
  0
CIRCLE
  5
105
330
2
100
AcDbEntity
  8
ZDRILL
100
AcDbCircle
 10
0.2399999999876394
 20
0.7876912181800363
 30
0.0
 40
0.0075
  0
CIRCLE
  5
106
330
2
100
AcDbEntity
  8
ZDRILL
100
AcDbCircle
 10
0.2399999999876394
 20
0.8528740157227005
 30
0.0
 40
0.0075
  0
CIRCLE
  5
107
330
2
100
AcDbEntity
  8
ZDRILL
100
AcDbCircle
 10
0.0399999999876366
 20
0.9528740157227019
 30
0.0
 40
0.0075
  0
CIRCLE
  5
108
330
2
100
AcDbEntity
  8
ZDRILL
100
AcDbCircle
 10
0.2399999999876394
 20
0.9528740157227019
 30
0.0
 40
0.0075
  0
CIRCLE
  5
109
330
2
100
AcDbEntity
  8
ZDRILL
100
AcDbCircle
 10
0.139999999987638
 20
0.9528740157227019
 30
0.0
 40
0.0075
  0
LWPOLYLINE
  5
10A
330
2
100
AcDbEntity
  8
SLK-NS
100
AcDbPolyline
 90
        4
 70
     1
 43
0.0
 10
0.3110077915117104
 20
0.9272800948404301
 10
0.3548482334419072
 20
0.9711205367706837
 10
0.3548482334419072
 20
0.9272800948404301
 10
0.3110077915117104
 20
0.8834396529101764
  0
LWPOLYLINE
  5
10B
330
2
100
AcDbEntity
  8
SLK-NS
100
AcDbPolyline
 90
        4
 70
     1
 43
0.0
 10
0.4064252239481557
 20
0.8576511576570815
 10
0.3754790296444055
 20
0.82670496335339
 10
0.3754790296444055
 20
0.7635231499833227
 10
0.4064252239481557
 20
0.7944693442870133
  0
LWPOLYLINE
  5
10C
330
2
100
AcDbEntity
  8
SLK-NS
100
AcDbPolyline
 90
        4
 70
     1
 43
0.0
 10
0.3625847820179588
 20
0.8705454052836437
 10
0.4064252239481557
 20
0.9143858472138973
 10
0.4064252239481557
 20
0.8705454052836437
 10
0.3625847820179588
 20
0.82670496335339
  0
LWPOLYLINE
  5
10D
330
2
100
AcDbEntity
  8
SLK-NS
100
AcDbPolyline
 90
        4
 70
     1
 43
0.0
 10
0.3548482334419072
 20
0.82670496335339
 10
0.3548482334419072
 20
0.8705454052836437
 10
0.3329280124768088
 20
0.8924656262487705
 10
0.3110077915117104
 20
0.8705454052836437
  0
LWPOLYLINE
  5
10E
330
2
100
AcDbEntity
  8
SLK-NS
100
AcDbPolyline
 90
        4
 70
     1
 43
0.0
 10
0.3110077915117104
 20
0.8576511576570815
 10
0.3419539858154605
 20
0.82670496335339
 10
0.3419539858154605
 20
0.7635231499833227
 10
0.3110077915117104
 20
0.7944693442870133
  0
CIRCLE
  5
10F
330
2
100
AcDbEntity
  8
ZDRILL
100
AcDbCircle
 10
0.3399999999876408
 20
0.7876912181800363
 30
0.0
 40
0.0075
  0
CIRCLE
  5
110
330
2
100
AcDbEntity
  8
ZDRILL
100
AcDbCircle
 10
0.3399999999876408
 20
0.8528740157227005
 30
0.0
 40
0.0075
  0
CIRCLE
  5
111
330
2
100
AcDbEntity
  8
ZDRILL
100
AcDbCircle
 10
0.4399999999876423
 20
0.7876912181800363
 30
0.0
 40
0.0075
  0
CIRCLE
  5
112
330
2
100
AcDbEntity
  8
ZDRILL
100
AcDbCircle
 10
0.4399999999876423
 20
0.8528740157227005
 30
0.0
 40
0.0075
  0
CIRCLE
  5
113
330
2
100
AcDbEntity
  8
ZDRILL
100
AcDbCircle
 10
0.3399999999876408
 20
0.9528740157227019
 30
0.0
 40
0.0075
  0
CIRCLE
  5
114
330
2
100
AcDbEntity
  8
ZDRILL
100
AcDbCircle
 10
0.4399999999876423
 20
0.9528740157227019
 30
0.0
 40
0.0075
  0
CIRCLE
  5
115
330
2
100
AcDbEntity
  8
ZDRILL
100
AcDbCircle
 10
0.6599999999876483
 20
0.7876912181800363
 30
0.0
 40
0.0075
  0
CIRCLE
  5
116
330
2
100
AcDbEntity
  8
ZDRILL
100
AcDbCircle
 10
0.5599999999876469
 20
0.7876912181800363
 30
0.0
 40
0.0075
  0
CIRCLE
  5
117
330
2
100
AcDbEntity
  8
ZDRILL
100
AcDbCircle
 10
0.6599999999876483
 20
0.8528740157227005
 30
0.0
 40
0.0075
  0
CIRCLE
  5
118
330
2
100
AcDbEntity
  8
ZDRILL
100
AcDbCircle
 10
0.5599999999876469
 20
0.8528740157227005
 30
0.0
 40
0.0075
  0
CIRCLE
  5
119
330
2
100
AcDbEntity
  8
ZDRILL
100
AcDbCircle
 10
0.7599999999876497
 20
0.7876912181800363
 30
0.0
 40
0.0075
  0
CIRCLE
  5
11A
330
2
100
AcDbEntity
  8
ZDRILL
100
AcDbCircle
 10
0.7599999999876497
 20
0.8528740157227005
 30
0.0
 40
0.0075
  0
CIRCLE
  5
11B
330
2
100
AcDbEntity
  8
ZDRILL
100
AcDbCircle
 10
0.6599999999876483
 20
0.9528740157227019
 30
0.0
 40
0.0075
  0
CIRCLE
  5
11C
330
2
100
AcDbEntity
  8
ZDRILL
100
AcDbCircle
 10
0.5599999999876469
 20
0.9528740157227019
 30
0.0
 40
0.0075
  0
CIRCLE
  5
11D
330
2
100
AcDbEntity
  8
ZDRILL
100
AcDbCircle
 10
0.7599999999876497
 20
0.9528740157227019
 30
0.0
 40
0.0075
  0
CIRCLE
  5
11E
330
2
100
AcDbEntity
  8
ZDRILL
100
AcDbCircle
 10
0.859999999987651
 20
0.7876912181800363
 30
0.0
 40
0.0075
  0
CIRCLE
  5
11F
330
2
100
AcDbEntity
  8
ZDRILL
100
AcDbCircle
 10
0.859999999987651
 20
0.8528740157227005
 30
0.0
 40
0.0075
  0
CIRCLE
  5
120
330
2
100
AcDbEntity
  8
ZDRILL
100
AcDbCircle
 10
0.9599999999876525
 20
0.8528740157227005
 30
0.0
 40
0.0075
  0
TEXT
  5
121
330
2
100
AcDbEntity
  8
SLK-NS
100
AcDbText
 10
0.8821724693944483
 20
0.7801698495478993
 30
-0.0000000000000001
 40
0.04
  1
RF
100
AcDbText
  0
TEXT
  5
122
330
2
100
AcDbEntity
  8
SLK-NS
100
AcDbText
 10
0.8810674525445287
 20
0.8513008719778641
 30
0.0
 40
0.04
  1
J2
100
AcDbText
  0
CIRCLE
  5
123
330
2
100
AcDbEntity
  8
ZDRILL
100
AcDbCircle
 10
0.9599999999876525
 20
0.9528740157227019
 30
0.0
 40
0.0075
  0
CIRCLE
  5
124
330
2
100
AcDbEntity
  8
ZDRILL
100
AcDbCircle
 10
0.859999999987651
 20
0.9528740157227019
 30
0.0
 40
0.0075
  0
ENDSEC
  0
SECTION
  2
OBJECTS
  0
DICTIONARY
  5
9
330
0
100
AcDbDictionary
281
     1
  3
ACAD_GROUP
350
2C
  3
ACAD_LAYOUT
350
D
  3
ACAD_MLINESTYLE
350
2D
  3
ACAD_PLOTSETTINGS
350
2E
  3
ACAD_PLOTSTYLENAME
350
8
  0
DICTIONARY
  5
18
330
17
100
AcDbDictionary
280
     1
281
     1
  3
ACAD_LAYERFILTERS
360
19
  3
ACAD_LAYERSTATES
360
1C
  0
DICTIONARY
  5
34
330
33
100
AcDbDictionary
280
     1
281
     1
  3
ACAD_XREC_ROUNDTRIP
360
35
  0
DICTIONARY
  5
42
330
41
100
AcDbDictionary
280
     1
281
     1
  3
ACAD_XREC_ROUNDTRIP
360
43
  0
DICTIONARY
  5
4A
330
49
100
AcDbDictionary
280
     1
281
     1
  3
ACAD_XREC_ROUNDTRIP
360
4B
  0
DICTIONARY
  5
3
330
2
100
AcDbDictionary
280
     1
281
     1
  3
ACAD_SORTENTS
360
4
  0
DICTIONARY
  5
2C
102
{ACAD_REACTORS
330
9
102
}
330
9
100
AcDbDictionary
281
     1
  0
DICTIONARY
  5
D
102
{ACAD_REACTORS
330
9
102
}
330
9
100
AcDbDictionary
281
     1
  3
Layout1
350
14
  3
Model
350
C
  0
DICTIONARY
  5
2D
102
{ACAD_REACTORS
330
9
102
}
330
9
100
AcDbDictionary
281
     1
  3
Standard
350
31
  0
DICTIONARY
  5
2E
102
{ACAD_REACTORS
330
9
102
}
330
9
100
AcDbDictionary
281
     1
  0
ACDBDICTIONARYWDFLT
  5
8
102
{ACAD_REACTORS
330
9
102
}
330
9
100
AcDbDictionary
281
     1
  3
Normal
350
7
100
AcDbDictionaryWithDefault
340
7
  0
DICTIONARY
  5
19
102
{ACAD_REACTORS
330
18
102
}
330
18
100
AcDbDictionary
280
     1
281
     1
  3
CAM
360
1A
  3
On layers
360
1B
  0
DICTIONARY
  5
1C
102
{ACAD_REACTORS
330
18
102
}
330
18
100
AcDbDictionary
281
     1
  0
XRECORD
  5
35
102
{ACAD_REACTORS
330
34
102
}
330
34
100
AcDbXrecord
280
     1
102
MATERIAL
340
0
  0
XRECORD
  5
43
102
{ACAD_REACTORS
330
42
102
}
330
42
100
AcDbXrecord
280
     1
102
MATERIAL
340
0
  0
XRECORD
  5
4B
102
{ACAD_REACTORS
330
4A
102
}
330
4A
100
AcDbXrecord
280
     1
102
MATERIAL
340
0
  0
SORTENTSTABLE
  5
4
102
{ACAD_REACTORS
330
3
102
}
330
3
100
AcDbSortentsTable
330
2
  0
LAYOUT
  5
14
102
{ACAD_XDICTIONARY
360
15
102
}
102
{ACAD_REACTORS
330
D
102
}
330
D
100
AcDbPlotSettings
  1

  2
None
  4

  6

 40
0.0
 41
0.0
 42
0.0
 43
0.0
 44
0.0
 45
0.0
 46
0.0
 47
0.0
 48
0.0
 49
0.0
140
0.0
141
0.0
142
1.0
143
1.0
 70
   688
 72
     0
 73
     0
 74
     5
  7
monochrome.ctb
 75
    16
147
1.0
148
0.0
149
0.0
100
AcDbLayout
  1
Layout1
 70
     1
 71
     1
 10
0.0
 20
0.0
 11
12.0
 21
9.0
 12
0.0
 22
0.0
 32
0.0
 14
0.0
 24
0.0
 34
0.0
 15
0.0
 25
0.0
 35
0.0
146
0.0
 13
0.0
 23
0.0
 33
0.0
 16
1.0
 26
0.0
 36
0.0
 17
0.0
 27
1.0
 37
0.0
 76
     0
330
11
  0
LAYOUT
  5
C
102
{ACAD_XDICTIONARY
360
E
102
}
102
{ACAD_REACTORS
330
D
102
}
330
D
100
AcDbPlotSettings
  1

  2
Acrobat Distiller
  4
User119
  6

 40
3.174999952316284
 41
3.174999952316284
 42
3.17498779296875
 43
3.17498779296875
 44
279.3999938964843
 45
431.7999877929687
 46
0.0
 47
0.0
 48
0.0
 49
0.0
140
5.501869581168232
141
4.247882212240988
142
1.0
143
0.3951518247949586
 70
  3600
 72
     0
 73
     1
 74
     4
  7
monochrome.ctb
 75
     0
147
2.530672863573115
148
0.0
149
0.0
100
AcDbLayout
  1
Model
 70
     1
 71
     0
 10
0.0
 20
0.0
 11
12.0
 21
9.0
 12
0.0
 22
0.0
 32
0.0
 14
0.0
 24
0.0
 34
0.0
 15
0.0
 25
0.0
 35
0.0
146
0.0
 13
0.0
 23
0.0
 33
0.0
 16
1.0
 26
0.0
 36
0.0
 17
0.0
 27
1.0
 37
0.0
 76
     0
330
2
1001
ACAD_PSEXT
1000
Adobe PDFD.pc3
1000
Adobe PDF Converter
1000
My Documents
1000
Creates Adobe PDF
1070
     0
  0
MLINESTYLE
  5
31
102
{ACAD_REACTORS
330
2D
102
}
330
2D
100
AcDbMlineStyle
  2
STANDARD
 70
     0
  3

 62
   256
 51
90.0
 52
90.0
 71
     2
 49
0.5
 62
   256
  6
BYLAYER
 49
-0.5
 62
   256
  6
BYLAYER
  0
ACDBPLACEHOLDER
  5
7
102
{ACAD_REACTORS
330
8
102
}
330
8
  0
XRECORD
  5
1A
102
{ACAD_REACTORS
330
19
102
}
330
19
100
AcDbXrecord
280
     1
  1
CAM
  1
*draw*,*flash*
  1
*
  1
*
 70
     0
  1
*
  1
*
  0
XRECORD
  5
1B
102
{ACAD_REACTORS
330
19
102
}
330
19
100
AcDbXrecord
280
     1
  1
On layers
  1
*
  1
*
  1
*
 70
     1
  1
*
  1
*
  0
DICTIONARY
  5
15
330
14
100
AcDbDictionary
280
     1
281
     1
  3
ACAD_XREC_ROUNDTRIP
360
16
  0
DICTIONARY
  5
E
330
C
100
AcDbDictionary
280
     1
281
     1
  3
ACAD_XREC_ROUNDTRIP
360
F
  0
XRECORD
  5
16
102
{ACAD_REACTORS
330
15
102
}
330
15
100
AcDbXrecord
280
     1
102
SHADEPLOT
 70
     0
102
SHADEPLOTRESLEVEL
 70
     2
102
SHADEPLOTCUSTOMDPI
 70
   300
  0
XRECORD
  5
F
102
{ACAD_REACTORS
330
E
102
}
330
E
100
AcDbXrecord
280
     1
102
SHADEPLOT
 70
     1
102
SHADEPLOTRESLEVEL
 70
     2
102
SHADEPLOTCUSTOMDPI
 70
   300
  0
ENDSEC
  0
EOF
