  0
SECTION
  2
HEADER
  9
$ACADVER
  1
AC1015
  9
$ACADMAINTVER
 70
    10
  9
$DWGCODEPAGE
  3
ANSI_1252
  9
$INSBASE
 10
0.0
 20
0.0
 30
0.0
  9
$EXTMIN
 10
0.3400979769432487
 20
0.1805154473890949
 30
0.0
  9
$EXTMAX
 10
1.370097976943248
 20
1.700515447389095
 30
0.0000000000000003
  9
$LIMMIN
 10
0.0
 20
0.0
  9
$LIMMAX
 10
12.0
 20
9.0
  9
$ORTHOMODE
 70
     1
  9
$REGENMODE
 70
     1
  9
$FILLMODE
 70
     1
  9
$QTEXTMODE
 70
     0
  9
$MIRRTEXT
 70
     0
  9
$LTSCALE
 40
1.0
  9
$ATTMODE
 70
     1
  9
$TEXTSIZE
 40
0.2
  9
$TRACEWID
 40
0.05
  9
$TEXTSTYLE
  7
Standard
  9
$CLAYER
  8
LAY1
  9
$CELTYPE
  6
ByLayer
  9
$CECOLOR
 62
   256
  9
$CELTSCALE
 40
1.0
  9
$DISPSILH
 70
     0
  9
$DIMSCALE
 40
0.1
  9
$DIMASZ
 40
0.18
  9
$DIMEXO
 40
0.0625
  9
$DIMDLI
 40
0.38
  9
$DIMRND
 40
0.0
  9
$DIMDLE
 40
0.0
  9
$DIMEXE
 40
0.18
  9
$DIMTP
 40
0.0
  9
$DIMTM
 40
0.0
  9
$DIMTXT
 40
0.18
  9
$DIMCEN
 40
0.09
  9
$DIMTSZ
 40
0.0
  9
$DIMTOL
 70
     0
  9
$DIMLIM
 70
     0
  9
$DIMTIH
 70
     1
  9
$DIMTOH
 70
     1
  9
$DIMSE1
 70
     0
  9
$DIMSE2
 70
     0
  9
$DIMTAD
 70
     0
  9
$DIMZIN
 70
     4
  9
$DIMBLK
  1

  9
$DIMASO
 70
     1
  9
$DIMSHO
 70
     1
  9
$DIMPOST
  1

  9
$DIMAPOST
  1

  9
$DIMALT
 70
     1
  9
$DIMALTD
 70
     3
  9
$DIMALTF
 40
25.4
  9
$DIMLFAC
 40
1.0
  9
$DIMTOFL
 70
     0
  9
$DIMTVP
 40
0.0
  9
$DIMTIX
 70
     0
  9
$DIMSOXD
 70
     0
  9
$DIMSAH
 70
     0
  9
$DIMBLK1
  1

  9
$DIMBLK2
  1

  9
$DIMSTYLE
  2
3pls-metric
  9
$DIMCLRD
 70
     0
  9
$DIMCLRE
 70
     0
  9
$DIMCLRT
 70
     0
  9
$DIMTFAC
 40
1.0
  9
$DIMGAP
 40
0.09
  9
$DIMJUST
 70
     0
  9
$DIMSD1
 70
     0
  9
$DIMSD2
 70
     0
  9
$DIMTOLJ
 70
     1
  9
$DIMTZIN
 70
     0
  9
$DIMALTZ
 70
     0
  9
$DIMALTTZ
 70
     0
  9
$DIMUPT
 70
     1
  9
$DIMDEC
 70
     3
  9
$DIMTDEC
 70
     3
  9
$DIMALTU
 70
     2
  9
$DIMALTTD
 70
     3
  9
$DIMTXSTY
  7
Standard
  9
$DIMAUNIT
 70
     0
  9
$DIMADEC
 70
     0
  9
$DIMALTRND
 40
0.0
  9
$DIMAZIN
 70
     0
  9
$DIMDSEP
 70
    46
  9
$DIMATFIT
 70
     3
  9
$DIMFRAC
 70
     0
  9
$DIMLDRBLK
  1

  9
$DIMLUNIT
 70
     2
  9
$DIMLWD
 70
    -2
  9
$DIMLWE
 70
    -2
  9
$DIMTMOVE
 70
     0
  9
$LUNITS
 70
     2
  9
$LUPREC
 70
     4
  9
$SKETCHINC
 40
0.1
  9
$FILLETRAD
 40
0.0
  9
$AUNITS
 70
     0
  9
$AUPREC
 70
     0
  9
$MENU
  1
.
  9
$ELEVATION
 40
0.0
  9
$PELEVATION
 40
0.0
  9
$THICKNESS
 40
0.0
  9
$LIMCHECK
 70
     0
  9
$CHAMFERA
 40
0.0
  9
$CHAMFERB
 40
0.0
  9
$CHAMFERC
 40
1.0
  9
$CHAMFERD
 40
0.0
  9
$SKPOLY
 70
     0
  9
$TDCREATE
 40
2454500.316009953
  9
$TDUCREATE
 40
2454500.482676620
  9
$TDUPDATE
 40
2456201.337394918
  9
$TDUUPDATE
 40
2456201.504061585
  9
$TDINDWG
 40
52.4200882176
  9
$TDUSRTIMER
 40
52.4200882176
  9
$USRTIMER
 70
     1
  9
$ANGBASE
 50
0.0
  9
$ANGDIR
 70
     0
  9
$PDMODE
 70
     0
  9
$PDSIZE
 40
0.0
  9
$PLINEWID
 40
0.0
  9
$SPLFRAME
 70
     0
  9
$SPLINETYPE
 70
     6
  9
$SPLINESEGS
 70
     8
  9
$HANDSEED
  5
2ED72
  9
$SURFTAB1
 70
     6
  9
$SURFTAB2
 70
     6
  9
$SURFTYPE
 70
     6
  9
$SURFU
 70
     6
  9
$SURFV
 70
     6
  9
$UCSBASE
  2

  9
$UCSNAME
  2

  9
$UCSORG
 10
0.0
 20
0.0
 30
0.0
  9
$UCSXDIR
 10
1.0
 20
0.0
 30
0.0
  9
$UCSYDIR
 10
0.0
 20
1.0
 30
0.0
  9
$UCSORTHOREF
  2

  9
$UCSORTHOVIEW
 70
     0
  9
$UCSORGTOP
 10
0.0
 20
0.0
 30
0.0
  9
$UCSORGBOTTOM
 10
0.0
 20
0.0
 30
0.0
  9
$UCSORGLEFT
 10
0.0
 20
0.0
 30
0.0
  9
$UCSORGRIGHT
 10
0.0
 20
0.0
 30
0.0
  9
$UCSORGFRONT
 10
0.0
 20
0.0
 30
0.0
  9
$UCSORGBACK
 10
0.0
 20
0.0
 30
0.0
  9
$PUCSBASE
  2

  9
$PUCSNAME
  2

  9
$PUCSORG
 10
0.0
 20
0.0
 30
0.0
  9
$PUCSXDIR
 10
1.0
 20
0.0
 30
0.0
  9
$PUCSYDIR
 10
0.0
 20
1.0
 30
0.0
  9
$PUCSORTHOREF
  2

  9
$PUCSORTHOVIEW
 70
     0
  9
$PUCSORGTOP
 10
0.0
 20
0.0
 30
0.0
  9
$PUCSORGBOTTOM
 10
0.0
 20
0.0
 30
0.0
  9
$PUCSORGLEFT
 10
0.0
 20
0.0
 30
0.0
  9
$PUCSORGRIGHT
 10
0.0
 20
0.0
 30
0.0
  9
$PUCSORGFRONT
 10
0.0
 20
0.0
 30
0.0
  9
$PUCSORGBACK
 10
0.0
 20
0.0
 30
0.0
  9
$USERI1
 70
     0
  9
$USERI2
 70
     0
  9
$USERI3
 70
     0
  9
$USERI4
 70
     0
  9
$USERI5
 70
     0
  9
$USERR1
 40
0.0
  9
$USERR2
 40
0.0
  9
$USERR3
 40
0.0
  9
$USERR4
 40
0.0
  9
$USERR5
 40
0.0
  9
$WORLDVIEW
 70
     1
  9
$SHADEDGE
 70
     3
  9
$SHADEDIF
 70
    70
  9
$TILEMODE
 70
     1
  9
$MAXACTVP
 70
    64
  9
$PINSBASE
 10
0.0
 20
0.0
 30
0.0
  9
$PLIMCHECK
 70
     0
  9
$PEXTMIN
 10
0.0
 20
0.0
 30
0.0
  9
$PEXTMAX
 10
0.0
 20
0.0
 30
0.0
  9
$PLIMMIN
 10
0.0
 20
0.0
  9
$PLIMMAX
 10
12.0
 20
9.0
  9
$UNITMODE
 70
     0
  9
$VISRETAIN
 70
     1
  9
$PLINEGEN
 70
     0
  9
$PSLTSCALE
 70
     1
  9
$TREEDEPTH
 70
  3020
  9
$CMLSTYLE
  2
Standard
  9
$CMLJUST
 70
     0
  9
$CMLSCALE
 40
1.0
  9
$PROXYGRAPHICS
 70
     1
  9
$MEASUREMENT
 70
     0
  9
$CELWEIGHT
370
    -1
  9
$ENDCAPS
280
     0
  9
$JOINSTYLE
280
     0
  9
$LWDISPLAY
290
     0
  9
$INSUNITS
 70
     1
  9
$HYPERLINKBASE
  1

  9
$STYLESHEET
  1
monochrome.ctb
  9
$XEDIT
290
     1
  9
$CEPSNTYPE
380
     0
  9
$PSTYLEMODE
290
     1
  9
$FINGERPRINTGUID
  2
{FDEAD576-A652-11D2-9A35-0060089B3A3F}
  9
$VERSIONGUID
  2
{3D20D0D5-329F-4BF2-8772-343F4CEAFF33}
  9
$EXTNAMES
290
     1
  9
$PSVPSCALE
 40
0.0
  9
$OLESTARTUP
290
     0
  0
ENDSEC
  0
SECTION
  2
CLASSES
  0
CLASS
  1
ACDBDICTIONARYWDFLT
  2
AcDbDictionaryWithDefault
  3
AutoCAD 2000
 90
        0
280
     0
281
     0
  0
CLASS
  1
ACDBPLACEHOLDER
  2
AcDbPlaceHolder
  3
AutoCAD 2000
 90
        0
280
     0
281
     0
  0
CLASS
  1
LAYOUT
  2
AcDbLayout
  3
AutoCAD 2000
 90
        0
280
     0
281
     0
  0
CLASS
  1
SORTENTSTABLE
  2
AcDbSortentsTable
  3
AutoCAD 2000
 90
    32768
280
     0
281
     0
  0
CLASS
  1
DICTIONARYVAR
  2
AcDbDictionaryVar
  3
AutoCAD 2000
 90
        0
280
     0
281
     0
  0
ENDSEC
  0
SECTION
  2
TABLES
  0
TABLE
  2
VPORT
  5
1E
330
0
100
AcDbSymbolTable
 70
     3
  0
VPORT
  5
2ED71
330
1E
100
AcDbSymbolTableRecord
100
AcDbViewportTableRecord
  2
*Active
 70
     0
 10
0.0
 20
0.0
 11
1.0
 21
1.0
 12
0.8547363500748019
 22
0.9404805068597161
 13
0.0
 23
0.0
 14
0.5
 24
0.5
 15
0.5
 25
0.5
 16
0.0
 26
0.0
 36
1.0
 17
0.0
 27
0.0
 37
0.0
 40
1.540523307144277
 41
2.070484581497797
 42
50.0
 43
0.0
 44
0.0
 50
0.0
 51
0.0
 71
     0
 72
   100
 73
     1
 74
     3
 75
     0
 76
     0
 77
     0
 78
     0
281
     0
 65
     1
110
0.0
120
0.0
130
0.0
111
1.0
121
0.0
131
0.0
112
0.0
122
1.0
132
0.0
 79
     0
146
0.0
  0
ENDTAB
  0
TABLE
  2
LTYPE
  5
19
330
0
100
AcDbSymbolTable
 70
     1
  0
LTYPE
  5
1A
330
19
100
AcDbSymbolTableRecord
100
AcDbLinetypeTableRecord
  2
ByBlock
 70
     0
  3

 72
    65
 73
     0
 40
0.0
  0
LTYPE
  5
1B
330
19
100
AcDbSymbolTableRecord
100
AcDbLinetypeTableRecord
  2
ByLayer
 70
     0
  3

 72
    65
 73
     0
 40
0.0
  0
LTYPE
  5
8
330
19
100
AcDbSymbolTableRecord
100
AcDbLinetypeTableRecord
  2
Continuous
 70
     0
  3
Solid line
 72
    65
 73
     0
 40
0.0
  0
ENDTAB
  0
TABLE
  2
LAYER
  5
10
102
{ACAD_XDICTIONARY
360
11
102
}
330
0
100
AcDbSymbolTable
 70
    12
  0
LAYER
  5
4
330
10
100
AcDbSymbolTableRecord
100
AcDbLayerTableRecord
  2
0
 70
     0
 62
     7
  6
Continuous
370
    -3
390
5
  0
LAYER
  5
105
102
{ACAD_XDICTIONARY
360
106
102
}
330
10
100
AcDbSymbolTableRecord
100
AcDbLayerTableRecord
  2
MSK-NS
 70
     0
 62
    11
  6
Continuous
370
    -3
390
5
  0
LAYER
  5
10A
102
{ACAD_XDICTIONARY
360
10B
102
}
330
10
100
AcDbSymbolTableRecord
100
AcDbLayerTableRecord
  2
PCB
 70
     0
 62
   251
  6
Continuous
370
    -3
390
5
  0
LAYER
  5
115
102
{ACAD_XDICTIONARY
360
116
102
}
330
10
100
AcDbSymbolTableRecord
100
AcDbLayerTableRecord
  2
SLK-NS
 70
     0
 62
     6
  6
Continuous
370
    -3
390
5
  0
LAYER
  5
2A
102
{ACAD_XDICTIONARY
360
2B
102
}
330
10
100
AcDbSymbolTableRecord
100
AcDbLayerTableRecord
  2
LAY1
 70
     0
 62
     3
  6
Continuous
370
    -3
390
5
  0
LAYER
  5
86
330
10
100
AcDbSymbolTableRecord
100
AcDbLayerTableRecord
  2
SCRATCH1
 70
     0
 62
     5
  6
Continuous
370
    -3
390
5
  0
LAYER
  5
3E
330
10
100
AcDbSymbolTableRecord
100
AcDbLayerTableRecord
  2
ZDRILL
 70
     0
 62
     1
  6
Continuous
370
    -3
390
5
  0
LAYER
  5
10E
330
10
100
AcDbSymbolTableRecord
100
AcDbLayerTableRecord
  2
LAY2
 70
     0
 62
     6
  6
Continuous
370
    -3
390
5
  0
LAYER
  5
5E
330
10
100
AcDbSymbolTableRecord
100
AcDbLayerTableRecord
  2
MSK-NS-SCRATCH
 70
     0
 62
     2
  6
Continuous
370
    -3
390
5
  0
LAYER
  5
4F01
330
10
100
AcDbSymbolTableRecord
100
AcDbLayerTableRecord
  2
Defpoints
 70
     0
 62
     7
  6
Continuous
290
     0
370
    -3
390
5
  0
LAYER
  5
1B23E
330
10
100
AcDbSymbolTableRecord
100
AcDbLayerTableRecord
  2
DIM1
 70
     0
 62
     3
  6
Continuous
370
    -3
390
5
  0
LAYER
  5
2EBD4
330
10
100
AcDbSymbolTableRecord
100
AcDbLayerTableRecord
  2
pad1
 70
     0
 62
     4
  6
Continuous
370
    -3
390
5
  0
ENDTAB
  0
TABLE
  2
STYLE
  5
16
330
0
100
AcDbSymbolTable
 70
     1
  0
STYLE
  5
17
330
16
100
AcDbSymbolTableRecord
100
AcDbTextStyleTableRecord
  2
Standard
 70
     0
 40
0.0
 41
1.0
 50
0.0
 71
     0
 42
0.2
  3
txt
  4

  0
ENDTAB
  0
TABLE
  2
VIEW
  5
1C
330
0
100
AcDbSymbolTable
 70
     0
  0
ENDTAB
  0
TABLE
  2
UCS
  5
1D
330
0
100
AcDbSymbolTable
 70
     0
  0
ENDTAB
  0
TABLE
  2
APPID
  5
20
330
0
100
AcDbSymbolTable
 70
     4
  0
APPID
  5
21
330
20
100
AcDbSymbolTableRecord
100
AcDbRegAppTableRecord
  2
ACAD
 70
     0
  0
APPID
  5
108
330
20
100
AcDbSymbolTableRecord
100
AcDbRegAppTableRecord
  2
cdspoly
 70
     0
  0
APPID
  5
23C4
330
20
100
AcDbSymbolTableRecord
100
AcDbRegAppTableRecord
  2
ACAD_PSEXT
 70
     0
  0
APPID
  5
1B6C9
330
20
100
AcDbSymbolTableRecord
100
AcDbRegAppTableRecord
  2
AcAecLayerStandard
 70
     0
  0
ENDTAB
  0
TABLE
  2
DIMSTYLE
  5
22
330
0
100
AcDbSymbolTable
 70
     2
100
AcDbDimStyleTable
 71
     1
340
1C140
  0
DIMSTYLE
105
4BBB
330
22
100
AcDbSymbolTableRecord
100
AcDbDimStyleTableRecord
  2
Standard
 70
     0
340
17
  0
DIMSTYLE
105
1C140
330
22
100
AcDbSymbolTableRecord
100
AcDbDimStyleTableRecord
  2
3pls-metric
 70
     0
 40
0.1
 78
     4
170
     1
171
     3
271
     3
272
     3
274
     3
288
     1
340
17
  0
ENDTAB
  0
TABLE
  2
BLOCK_RECORD
  5
1
330
0
100
AcDbSymbolTable
 70
     0
  0
BLOCK_RECORD
  5
2
330
1
100
AcDbSymbolTableRecord
100
AcDbBlockTableRecord
  2
*Model_Space
340
A
  0
BLOCK_RECORD
  5
C
330
1
100
AcDbSymbolTableRecord
100
AcDbBlockTableRecord
  2
*Paper_Space
340
F
  0
ENDTAB
  0
ENDSEC
  0
SECTION
  2
BLOCKS
  0
BLOCK
  5
3
330
2
100
AcDbEntity
  8
0
100
AcDbBlockBegin
  2
*Model_Space
 70
     0
 10
0.0
 20
0.0
 30
0.0
  3
*Model_Space
  1

  0
ENDBLK
  5
9
330
2
100
AcDbEntity
  8
0
100
AcDbBlockEnd
  0
BLOCK
  5
D
330
C
100
AcDbEntity
 67
     1
  8
0
100
AcDbBlockBegin
  2
*Paper_Space
 70
     0
 10
0.0
 20
0.0
 30
0.0
  3
*Paper_Space
  1

  0
ENDBLK
  5
E
330
C
100
AcDbEntity
 67
     1
  8
0
100
AcDbBlockEnd
  0
ENDSEC
  0
SECTION
  2
ENTITIES
  0
MTEXT
  5
1B3C7
330
2
100
AcDbEntity
  8
DIM1
100
AcDbMText
 10
-21.37422300580706
 20
-7.464375887736395
 30
0.0
 40
0.09
 41
22.5574
 71
     1
 72
     1
  1

 73
     1
 44
1.0
  0
LWPOLYLINE
  5
22B4C
330
2
100
AcDbEntity
  8
PCB
100
AcDbPolyline
 90
        4
 70
     1
 43
0.0
 10
1.355097976943248
 20
1.690515447389095
 10
0.3550979769432487
 20
1.690515447389095
 10
0.3550979769432487
 20
0.1905154473890951
 10
1.355097976943248
 20
0.1905154473890951
1001
cdspoly
1000

  0
TEXT
  5
22B4F
330
2
100
AcDbEntity
  8
SLK-NS
100
AcDbText
 10
1.176642856704852
 20
0.2235818973324646
 30
0.0
 40
0.035
  1
100149A REV 2
 50
90.0
100
AcDbText
  0
CIRCLE
  5
22B50
330
2
100
AcDbEntity
  8
ZDRILL
100
AcDbCircle
 10
0.3950979769432408
 20
0.3375727011827996
 30
0.0000000000000001
 40
0.0075
  0
CIRCLE
  5
22B51
330
2
100
AcDbEntity
  8
ZDRILL
100
AcDbCircle
 10
0.3950979769432408
 20
0.2375727011827982
 30
0.0000000000000001
 40
0.0075
  0
CIRCLE
  5
22B52
330
2
100
AcDbEntity
  8
ZDRILL
100
AcDbCircle
 10
0.4950979769432422
 20
0.3375727011827996
 30
0.0000000000000001
 40
0.0075
  0
CIRCLE
  5
22B53
330
2
100
AcDbEntity
  8
ZDRILL
100
AcDbCircle
 10
0.4950979769432422
 20
0.2375727011827982
 30
0.0000000000000001
 40
0.0075
  0
CIRCLE
  5
22B54
330
2
100
AcDbEntity
  8
ZDRILL
100
AcDbCircle
 10
0.5950979769432437
 20
0.3375727011827996
 30
0.0000000000000001
 40
0.0075
  0
CIRCLE
  5
22B55
330
2
100
AcDbEntity
  8
ZDRILL
100
AcDbCircle
 10
0.5950979769432437
 20
0.2375727011827982
 30
0.0000000000000001
 40
0.0075
  0
CIRCLE
  5
22B5E
330
2
100
AcDbEntity
  8
ZDRILL
100
AcDbCircle
 10
1.115097976943253
 20
0.3375727011827996
 30
0.0000000000000001
 40
0.0075
  0
CIRCLE
  5
22B5F
330
2
100
AcDbEntity
  8
ZDRILL
100
AcDbCircle
 10
1.115097976943253
 20
0.2375727011827982
 30
0.0000000000000001
 40
0.0075
  0
CIRCLE
  5
22B60
330
2
100
AcDbEntity
  8
ZDRILL
100
AcDbCircle
 10
1.215097976943255
 20
0.3375727011827996
 30
0.0000000000000001
 40
0.0075
  0
CIRCLE
  5
22B61
330
2
100
AcDbEntity
  8
ZDRILL
100
AcDbCircle
 10
1.215097976943255
 20
0.2375727011827982
 30
0.0000000000000001
 40
0.0075
  0
CIRCLE
  5
22B62
330
2
100
AcDbEntity
  8
ZDRILL
100
AcDbCircle
 10
1.315097976943256
 20
0.3375727011827996
 30
0.0000000000000001
 40
0.0075
  0
CIRCLE
  5
22B63
330
2
100
AcDbEntity
  8
ZDRILL
100
AcDbCircle
 10
1.315097976943256
 20
0.2375727011827982
 30
0.0000000000000001
 40
0.0075
  0
LWPOLYLINE
  5
22B65
330
2
100
AcDbEntity
  8
LAY1
100
AcDbPolyline
 90
        6
 70
     1
 43
0.0
 10
1.313097976943261
 20
0.9330727011566741
 10
0.9151010045354865
 20
0.9330727011459201
 10
0.9151010045354759
 20
0.9480727011459242
 10
1.313097976965536
 20
0.9480727011566765
 10
1.35309797694326
 20
0.9460727011328069
 10
1.35309797694326
 20
0.9350727011328094
  0
LWPOLYLINE
  5
22B66
330
2
100
AcDbEntity
  8
MSK-NS-SCRATCH
100
AcDbPolyline
 90
        4
 70
     1
 43
0.0
 10
1.08309797694325
 20
1.5177227700552
 10
1.08309797694325
 20
1.658722770055201
 10
1.027097976943252
 20
1.658722770055201
 10
1.027097976943252
 20
1.517722770055201
  0
LWPOLYLINE
  5
22B67
330
2
100
AcDbEntity
  8
MSK-NS-SCRATCH
100
AcDbPolyline
 90
        4
 70
     1
 43
0.0
 10
1.08309797694325
 20
1.3317227700552
 10
1.08309797694325
 20
1.472722770055201
 10
1.027097976943252
 20
1.472722770055201
 10
1.027097976943252
 20
1.331722770055201
  0
LWPOLYLINE
  5
22B68
330
2
100
AcDbEntity
  8
MSK-NS-SCRATCH
100
AcDbPolyline
 90
        4
 70
     1
 43
0.0
 10
1.27684069804993
 20
0.8875727011828073
 10
1.276840698049966
 20
0.9935727011328081
 10
0.965680654108965
 20
0.9935727011328081
 10
0.965680654108965
 20
0.8875727011828073
  0
LWPOLYLINE
  5
22B6D
330
2
100
AcDbEntity
  8
MSK-NS-SCRATCH
100
AcDbPolyline
 90
        5
 70
     1
 43
0.0
 10
0.7979798667070135
 20
1.0015704966023
 10
0.7979798667070171
 20
0.9709799454212015
 10
0.799979866707016
 20
0.9689799454212009
 10
0.81379089032907
 20
0.9689799454211991
 10
0.81379089032907
 20
1.0015704966023
  0
LWPOLYLINE
  5
22B6E
330
2
100
AcDbEntity
  8
MSK-NS-SCRATCH
100
AcDbPolyline
 90
        4
 70
     1
 43
0.0
 10
0.8176649060770877
 20
1.0015704966023
 10
0.8176649060770877
 20
0.9689799454211991
 10
0.8334759296991443
 20
0.9689799454211991
 10
0.8334759296991443
 20
1.0015704966023
  0
LWPOLYLINE
  5
22B6F
330
2
100
AcDbEntity
  8
MSK-NS-SCRATCH
100
AcDbPolyline
 90
        4
 70
     1
 43
0.0
 10
0.8373499454471691
 20
1.0015704966023
 10
0.8373499454471691
 20
0.9689799454211991
 10
0.8531609690692256
 20
0.9689799454211991
 10
0.8531609690692256
 20
1.0015704966023
  0
LWPOLYLINE
  5
22B70
330
2
100
AcDbEntity
  8
MSK-NS-SCRATCH
100
AcDbPolyline
 90
        4
 70
     1
 43
0.0
 10
0.8570349848172504
 20
1.0015704966023
 10
0.8570349848172504
 20
0.9689799454211991
 10
0.872846008439307
 20
0.9689799454211991
 10
0.872846008439307
 20
1.0015704966023
  0
LWPOLYLINE
  5
22B71
330
2
100
AcDbEntity
  8
MSK-NS-SCRATCH
100
AcDbPolyline
 90
        4
 70
     1
 43
0.0
 10
0.8767200241873247
 20
1.0015704966023
 10
0.8767200241873247
 20
0.9689799454211991
 10
0.8925310478093813
 20
0.9689799454211991
 10
0.8925310478093813
 20
1.0015704966023
  0
LWPOLYLINE
  5
22B72
330
2
100
AcDbEntity
  8
MSK-NS-SCRATCH
100
AcDbPolyline
 90
        5
 70
     1
 43
0.0
 10
0.8964050635574061
 20
1.0015704966023
 10
0.8964050635574061
 20
0.9689799454211991
 10
0.9102160871794673
 20
0.9689799454212009
 10
0.9122160871794662
 20
0.9709799454212015
 10
0.9122160871794626
 20
1.0015704966023
  0
LWPOLYLINE
  5
22B7C
330
2
100
AcDbEntity
  8
MSK-NS-SCRATCH
100
AcDbPolyline
 90
       16
 70
     1
 43
0.0
 10
0.3400979769432487
 20
1.200572701157807
 10
0.3400979769432487
 20
0.6805727011578098
 10
0.5680979769432497
 20
0.6805727011578098
 10
0.5680979769432497
 20
0.8255727011578111
 10
0.4950979769426667
 20
0.8255727011578093
 10
0.4950979769426738
 20
0.8515725633557797
 10
0.3850979769432428
 20
0.8515725633557797
 10
0.385097976943257
 20
0.9244550729648155
 10
0.4133552558365637
 20
0.9244550729648137
 10
0.4133552558365637
 20
0.9565756840185875
 10
0.3850979769432499
 20
0.9565756840185857
 10
0.385097976943257
 20
1.029572563370215
 10
0.4950979769426596
 20
1.029572563370215
 10
0.4950979769426667
 20
1.055572701157809
 10
0.5680979769432497
 20
1.055572701157809
 10
0.5680979769432497
 20
1.200572701157811
  0
LWPOLYLINE
  5
22B83
330
2
100
AcDbEntity
  8
LAY1
100
AcDbPolyline
 90
        6
 70
     1
 43
0.0
 10
0.3970979769374097
 20
0.9330727011566741
 10
0.7950949493451845
 20
0.9330727011459201
 10
0.7950949493451951
 20
0.9480727011459242
 10
0.3970979769151341
 20
0.9480727011566765
 10
0.3570979769374105
 20
0.9460727011328069
 10
0.3570979769374105
 20
0.9350727011328094
  0
CIRCLE
  5
22B84
330
2
100
AcDbEntity
  8
ZDRILL
100
AcDbCircle
 10
0.5750979769432334
 20
0.9735727011328085
 30
0.0000000000000001
 40
0.0075
  0
CIRCLE
  5
22B85
330
2
100
AcDbEntity
  8
ZDRILL
100
AcDbCircle
 10
0.5750979769432334
 20
0.9075727011328096
 30
0.0000000000000001
 40
0.0075
  0
LWPOLYLINE
  5
22B86
330
2
100
AcDbEntity
  8
MSK-NS-SCRATCH
100
AcDbPolyline
 90
        4
 70
     1
 43
0.0
 10
0.4333552558365668
 20
0.8875727011828073
 10
0.4333552558365313
 20
0.9935727011328081
 10
0.7445152997775324
 20
0.9935727011328081
 10
0.7445152997775324
 20
0.8875727011828073
  0
CIRCLE
  5
22B88
330
2
100
AcDbEntity
  8
ZDRILL
100
AcDbCircle
 10
0.4650979769432411
 20
0.753072701157806
 30
0.0
 40
0.0405
  0
CIRCLE
  5
22B8D
330
2
100
AcDbEntity
  8
ZDRILL
100
AcDbCircle
 10
0.4950979769432422
 20
0.5375727011828025
 30
0.0000000000000001
 40
0.0075
  0
CIRCLE
  5
22B8E
330
2
100
AcDbEntity
  8
ZDRILL
100
AcDbCircle
 10
0.3950979769432408
 20
0.5375727011828025
 30
0.0000000000000001
 40
0.0075
  0
CIRCLE
  5
22B8F
330
2
100
AcDbEntity
  8
ZDRILL
100
AcDbCircle
 10
0.3950979769432408
 20
0.437572701182801
 30
0.0000000000000001
 40
0.0075
  0
CIRCLE
  5
22B90
330
2
100
AcDbEntity
  8
ZDRILL
100
AcDbCircle
 10
0.4950979769432422
 20
0.437572701182801
 30
0.0000000000000001
 40
0.0075
  0
CIRCLE
  5
22B91
330
2
100
AcDbEntity
  8
ZDRILL
100
AcDbCircle
 10
0.3950979769432408
 20
0.6375727011828039
 30
0.0000000000000001
 40
0.0075
  0
CIRCLE
  5
22B92
330
2
100
AcDbEntity
  8
ZDRILL
100
AcDbCircle
 10
0.4950979769432422
 20
0.6375727011828039
 30
0.0000000000000001
 40
0.0075
  0
CIRCLE
  5
22B96
330
2
100
AcDbEntity
  8
ZDRILL
100
AcDbCircle
 10
0.3950979769432408
 20
0.7375727011828053
 30
0.0000000000000001
 40
0.0075
  0
CIRCLE
  5
22B97
330
2
100
AcDbEntity
  8
ZDRILL
100
AcDbCircle
 10
0.3950979769432408
 20
0.8375727011828049
 30
0.0000000000000001
 40
0.0075
  0
CIRCLE
  5
22B99
330
2
100
AcDbEntity
  8
ZDRILL
100
AcDbCircle
 10
0.4950979769432422
 20
0.8375727011828049
 30
0.0000000000000001
 40
0.0075
  0
CIRCLE
  5
22B9A
330
2
100
AcDbEntity
  8
ZDRILL
100
AcDbCircle
 10
0.455097976943236
 20
0.9735727011328085
 30
0.0000000000000001
 40
0.0075
  0
CIRCLE
  5
22B9B
330
2
100
AcDbEntity
  8
ZDRILL
100
AcDbCircle
 10
0.455097976943236
 20
0.9075727011328096
 30
0.0000000000000001
 40
0.0075
  0
CIRCLE
  5
22B9D
330
2
100
AcDbEntity
  8
ZDRILL
100
AcDbCircle
 10
0.4150979769432368
 20
0.9735727011328085
 30
0.0000000000000001
 40
0.0075
  0
CIRCLE
  5
22B9E
330
2
100
AcDbEntity
  8
ZDRILL
100
AcDbCircle
 10
0.4150979769432368
 20
0.9075727011328096
 30
0.0000000000000001
 40
0.0075
  0
CIRCLE
  5
22B9F
330
2
100
AcDbEntity
  8
ZDRILL
100
AcDbCircle
 10
0.3750979769432376
 20
0.9735727011328085
 30
0.0000000000000001
 40
0.0075
  0
CIRCLE
  5
22BA0
330
2
100
AcDbEntity
  8
ZDRILL
100
AcDbCircle
 10
0.3750979769432376
 20
0.9075727011328096
 30
0.0000000000000001
 40
0.0075
  0
CIRCLE
  5
22BA1
330
2
100
AcDbEntity
  8
ZDRILL
100
AcDbCircle
 10
0.3950979769432408
 20
1.043572701132807
 30
0.0000000000000001
 40
0.0075
  0
CIRCLE
  5
22BA2
330
2
100
AcDbEntity
  8
ZDRILL
100
AcDbCircle
 10
0.5350979769432343
 20
0.9735727011328085
 30
0.0000000000000001
 40
0.0075
  0
CIRCLE
  5
22BA3
330
2
100
AcDbEntity
  8
ZDRILL
100
AcDbCircle
 10
0.4950979769432351
 20
0.9735727011328085
 30
0.0000000000000001
 40
0.0075
  0
CIRCLE
  5
22BA4
330
2
100
AcDbEntity
  8
ZDRILL
100
AcDbCircle
 10
0.5350979769432343
 20
0.9075727011328096
 30
0.0000000000000001
 40
0.0075
  0
CIRCLE
  5
22BA5
330
2
100
AcDbEntity
  8
ZDRILL
100
AcDbCircle
 10
0.4950979769432351
 20
0.9075727011328096
 30
0.0000000000000001
 40
0.0075
  0
CIRCLE
  5
22BA6
330
2
100
AcDbEntity
  8
ZDRILL
100
AcDbCircle
 10
0.4950979769432422
 20
1.043572701132807
 30
0.0000000000000001
 40
0.0075
  0
CIRCLE
  5
22BA9
330
2
100
AcDbEntity
  8
ZDRILL
100
AcDbCircle
 10
0.5950979769432437
 20
0.5375727011828025
 30
0.0000000000000001
 40
0.0075
  0
CIRCLE
  5
22BAA
330
2
100
AcDbEntity
  8
ZDRILL
100
AcDbCircle
 10
0.5950979769432437
 20
0.437572701182801
 30
0.0000000000000001
 40
0.0075
  0
CIRCLE
  5
22BAD
330
2
100
AcDbEntity
  8
ZDRILL
100
AcDbCircle
 10
0.5950979769432437
 20
0.6375727011828039
 30
0.0000000000000001
 40
0.0075
  0
CIRCLE
  5
22BB4
330
2
100
AcDbEntity
  8
ZDRILL
100
AcDbCircle
 10
0.9048159468082133
 20
0.6375727011828039
 30
0.0000000000000001
 40
0.0075
  0
CIRCLE
  5
22BB5
330
2
100
AcDbEntity
  8
ZDRILL
100
AcDbCircle
 10
1.015097976943259
 20
0.6375727011828039
 30
0.0000000000000001
 40
0.0075
  0
LWPOLYLINE
  5
22BB9
330
2
100
AcDbEntity
  8
MSK-NS-SCRATCH
100
AcDbPolyline
 90
        8
 70
     1
 43
0.0
 10
0.8028853785180452
 20
0.869649236759419
 42
0.4142135623730951
 10
0.813759394266075
 20
0.8587752210113892
 10
0.8964365596204082
 20
0.8587752210113874
 42
0.4142135623730951
 10
0.907310575368438
 20
0.869649236759419
 10
0.907310575368438
 20
0.9523264021137451
 42
0.4142135623730951
 10
0.8964365596204082
 20
0.9632004178617767
 10
0.813759394266075
 20
0.9632004178617892
 42
0.414213562373095
 10
0.8028853785180452
 20
0.9523264021137451
  0
LWPOLYLINE
  5
22BBA
330
2
100
AcDbEntity
  8
MSK-NS-SCRATCH
100
AcDbPolyline
 90
        5
 70
     1
 43
0.0
 10
0.7979798667070135
 20
0.8204051422708493
 10
0.7979798667070135
 20
0.850995693451952
 10
0.7999798667070124
 20
0.8529956934519526
 10
0.81379089032907
 20
0.8529956934519509
 10
0.81379089032907
 20
0.8204051422708493
  0
CIRCLE
  5
22BC0
330
2
100
AcDbEntity
  8
ZDRILL
100
AcDbCircle
 10
0.7951062073719975
 20
0.8074183896159654
 30
0.0
 40
0.0075
  0
CIRCLE
  5
22BC1
330
2
100
AcDbEntity
  8
ZDRILL
100
AcDbCircle
 10
0.5950979769432437
 20
0.7375727011828053
 30
0.0000000000000001
 40
0.0075
  0
CIRCLE
  5
22BC2
330
2
100
AcDbEntity
  8
ZDRILL
100
AcDbCircle
 10
0.5950979769432437
 20
0.8375727011828049
 30
0.0000000000000001
 40
0.0075
  0
CIRCLE
  5
22BC8
330
2
100
AcDbEntity
  8
ZDRILL
100
AcDbCircle
 10
0.6150979769432326
 20
0.9735727011328085
 30
0.0000000000000001
 40
0.0075
  0
CIRCLE
  5
22BC9
330
2
100
AcDbEntity
  8
ZDRILL
100
AcDbCircle
 10
0.6150979769432326
 20
0.9075727011328096
 30
0.0000000000000001
 40
0.0075
  0
CIRCLE
  5
22BCA
330
2
100
AcDbEntity
  8
ZDRILL
100
AcDbCircle
 10
0.6550979769432317
 20
0.9735727011328085
 30
0.0000000000000001
 40
0.0075
  0
CIRCLE
  5
22BCB
330
2
100
AcDbEntity
  8
ZDRILL
100
AcDbCircle
 10
0.6550979769432317
 20
0.9075727011328096
 30
0.0000000000000001
 40
0.0075
  0
CIRCLE
  5
22BCC
330
2
100
AcDbEntity
  8
ZDRILL
100
AcDbCircle
 10
0.5950979769432437
 20
1.043572701132807
 30
0.0000000000000001
 40
0.0075
  0
LWPOLYLINE
  5
22BCE
330
2
100
AcDbEntity
  8
MSK-NS-SCRATCH
100
AcDbPolyline
 90
        5
 70
     1
 43
0.0
 10
0.764515299777532
 20
0.8713325436659919
 10
0.7971058509586335
 20
0.8713325436659919
 10
0.7971058509586371
 20
0.854332543666243
 10
0.7951058509586382
 20
0.8523325436662423
 10
0.764515299777532
 20
0.8523325436662423
  0
LWPOLYLINE
  5
22BCF
330
2
100
AcDbEntity
  8
SCRATCH1
100
AcDbPolyline
 90
        4
 70
     1
 43
0.0
 10
0.7921058509590289
 20
0.8435325436657192
 10
0.7999798667069875
 20
0.8435325436657192
 10
0.7999798667069875
 20
0.8244366383342383
 10
0.7921058509590289
 20
0.8244366383342383
  0
LWPOLYLINE
  5
22BD1
330
2
100
AcDbEntity
  8
MSK-NS-SCRATCH
100
AcDbPolyline
 90
        4
 70
     1
 43
0.0
 10
0.764515299777532
 20
0.9090508115625732
 10
0.7971058509586335
 20
0.9090508115625732
 10
0.7971058509586335
 20
0.8932397879405131
 10
0.764515299777532
 20
0.8932397879405131
  0
LWPOLYLINE
  5
22BD2
330
2
100
AcDbEntity
  8
MSK-NS-SCRATCH
100
AcDbPolyline
 90
        4
 70
     1
 43
0.0
 10
0.764515299777532
 20
0.9287358509326617
 10
0.7971058509586335
 20
0.9287358509326617
 10
0.7971058509586335
 20
0.9129248273106016
 10
0.764515299777532
 20
0.9129248273106016
  0
CIRCLE
  5
22BD3
330
2
100
AcDbEntity
  8
ZDRILL
100
AcDbCircle
 10
0.73509797694323
 20
0.9735727011328085
 30
0.0000000000000001
 40
0.0075
  0
CIRCLE
  5
22BD4
330
2
100
AcDbEntity
  8
ZDRILL
100
AcDbCircle
 10
0.6950979769432309
 20
0.9735727011328085
 30
0.0000000000000001
 40
0.0075
  0
CIRCLE
  5
22BD5
330
2
100
AcDbEntity
  8
ZDRILL
100
AcDbCircle
 10
0.73509797694323
 20
0.9075727011328096
 30
0.0000000000000001
 40
0.0075
  0
CIRCLE
  5
22BD6
330
2
100
AcDbEntity
  8
ZDRILL
100
AcDbCircle
 10
0.6950979769432309
 20
0.9075727011328096
 30
0.0000000000000001
 40
0.0075
  0
LWPOLYLINE
  5
22BF0
330
2
100
AcDbEntity
  8
MSK-NS-SCRATCH
100
AcDbPolyline
 90
        5
 70
     1
 43
0.0
 10
0.764515299777532
 20
0.9681059296728102
 10
0.7951058509586382
 20
0.9681059296728102
 10
0.7971058509586371
 20
0.9661059296728096
 10
0.7971058509586335
 20
0.9522949060507501
 10
0.764515299777532
 20
0.9522949060507501
  0
LWPOLYLINE
  5
22BF1
330
2
100
AcDbEntity
  8
MSK-NS-SCRATCH
100
AcDbPolyline
 90
        4
 70
     1
 43
0.0
 10
0.764515299777532
 20
0.948420890302736
 10
0.7971058509586335
 20
0.948420890302736
 10
0.7971058509586335
 20
0.9326098666806759
 10
0.764515299777532
 20
0.9326098666806759
  0
LWPOLYLINE
  5
22BF2
330
2
100
AcDbEntity
  8
MSK-NS-SCRATCH
100
AcDbPolyline
 90
        4
 70
     1
 43
0.0
 10
0.764515299777532
 20
0.889365772192499
 10
0.7971058509586335
 20
0.889365772192499
 10
0.7971058509586335
 20
0.8735547485704389
 10
0.764515299777532
 20
0.8735547485704389
  0
CIRCLE
  5
22BF4
330
2
100
AcDbEntity
  8
ZDRILL
100
AcDbCircle
 10
0.9151062073719948
 20
0.8074183896159654
 30
0.0
 40
0.0075
  0
CIRCLE
  5
22BF5
330
2
100
AcDbEntity
  8
ZDRILL
100
AcDbCircle
 10
0.8751062073719957
 20
0.8074183896159654
 30
0.0
 40
0.0075
  0
CIRCLE
  5
22BF6
330
2
100
AcDbEntity
  8
ZDRILL
100
AcDbCircle
 10
0.8351062073719965
 20
0.8074183896159654
 30
0.0
 40
0.0075
  0
CIRCLE
  5
22BF8
330
2
100
AcDbEntity
  8
ZDRILL
100
AcDbCircle
 10
0.9048159468082133
 20
0.7375727011828053
 30
0.0000000000000001
 40
0.0075
  0
CIRCLE
  5
22BF9
330
2
100
AcDbEntity
  8
ZDRILL
100
AcDbCircle
 10
1.015097976943259
 20
0.7375727011828053
 30
0.0000000000000001
 40
0.0075
  0
CIRCLE
  5
22BFA
330
2
100
AcDbEntity
  8
ZDRILL
100
AcDbCircle
 10
1.015097976943259
 20
0.8375727011828049
 30
0.0000000000000001
 40
0.0075
  0
LWPOLYLINE
  5
22BFB
330
2
100
AcDbEntity
  8
MSK-NS-SCRATCH
100
AcDbPolyline
 90
        4
 70
     1
 43
0.0
 10
0.9456806541089584
 20
0.9287358509326617
 10
0.9130901029278568
 20
0.9287358509326617
 10
0.9130901029278568
 20
0.9129248273106016
 10
0.9456806541089584
 20
0.9129248273106016
  0
LWPOLYLINE
  5
22BFC
330
2
100
AcDbEntity
  8
MSK-NS-SCRATCH
100
AcDbPolyline
 90
        4
 70
     1
 43
0.0
 10
0.9456806541089584
 20
0.9090508115625732
 10
0.9130901029278568
 20
0.9090508115625732
 10
0.9130901029278568
 20
0.8932397879405131
 10
0.9456806541089584
 20
0.8932397879405131
  0
LWPOLYLINE
  5
22BFE
330
2
100
AcDbEntity
  8
SCRATCH1
100
AcDbPolyline
 90
        4
 70
     1
 43
0.0
 10
0.9053105753684427
 20
0.9149248273105614
 10
0.9053105753684427
 20
0.9070508115626028
 10
0.9416491580455961
 20
0.9070508115626028
 10
0.9416491580455961
 20
0.9149248273105614
  0
LWPOLYLINE
  5
22BFF
330
2
100
AcDbEntity
  8
SCRATCH1
100
AcDbPolyline
 90
        4
 70
     1
 43
0.0
 10
0.9053105753684427
 20
0.8952397879404871
 10
0.9053105753684427
 20
0.8873657721925285
 10
0.9416491580455961
 20
0.8873657721925285
 10
0.9416491580455961
 20
0.8952397879404871
  0
LWPOLYLINE
  5
22C00
330
2
100
AcDbEntity
  8
MSK-NS-SCRATCH
100
AcDbPolyline
 90
        5
 70
     1
 43
0.0
 10
0.9456806541089584
 20
0.8713325436659919
 10
0.9130901029278568
 20
0.8713325436659919
 10
0.9130901029278568
 20
0.854332543666243
 10
0.9150901029278557
 20
0.8523325436662423
 10
0.9456806541089584
 20
0.8523325436662423
  0
LWPOLYLINE
  5
22C01
330
2
100
AcDbEntity
  8
MSK-NS-SCRATCH
100
AcDbPolyline
 90
        4
 70
     1
 43
0.0
 10
0.9456806541089584
 20
0.889365772192499
 10
0.9130901029278568
 20
0.889365772192499
 10
0.9130901029278568
 20
0.8735547485704389
 10
0.9456806541089584
 20
0.8735547485704389
  0
LWPOLYLINE
  5
22C02
330
2
100
AcDbEntity
  8
MSK-NS-SCRATCH
100
AcDbPolyline
 90
        5
 70
     1
 43
0.0
 10
0.9456806541089584
 20
0.9681059296728244
 10
0.9150901029278557
 20
0.9681059296728244
 10
0.9130901029278568
 20
0.9661059296728238
 10
0.9130901029278568
 20
0.9522949060507643
 10
0.9456806541089584
 20
0.9522949060507643
  0
LWPOLYLINE
  5
22C03
330
2
100
AcDbEntity
  8
MSK-NS-SCRATCH
100
AcDbPolyline
 90
        4
 70
     1
 43
0.0
 10
0.9456806541089584
 20
0.948420890302736
 10
0.9130901029278568
 20
0.948420890302736
 10
0.9130901029278568
 20
0.9326098666806759
 10
0.9456806541089584
 20
0.9326098666806759
  0
LWPOLYLINE
  5
22C0A
330
2
100
AcDbEntity
  8
SCRATCH1
100
AcDbPolyline
 90
        4
 70
     1
 43
0.0
 10
0.9180901029274615
 20
0.8435325436657192
 10
0.9102160871795028
 20
0.8435325436657192
 10
0.9102160871795028
 20
0.8244366383342383
 10
0.9180901029274615
 20
0.8244366383342383
  0
LWPOLYLINE
  5
22C0B
330
2
100
AcDbEntity
  8
MSK-NS-SCRATCH
100
AcDbPolyline
 90
        5
 70
     1
 43
0.0
 10
0.8964050635574061
 20
0.8204051422708493
 10
0.8964050635574061
 20
0.8529956934519509
 10
0.9102160871794673
 20
0.8529956934519544
 10
0.9122160871794662
 20
0.8509956934519538
 10
0.9122160871794626
 20
0.8204051422708493
  0
LWPOLYLINE
  5
22C0C
330
2
100
AcDbEntity
  8
MSK-NS-SCRATCH
100
AcDbPolyline
 90
        4
 70
     1
 43
0.0
 10
0.8767200241873247
 20
0.8204051422708493
 10
0.8767200241873247
 20
0.8529956934519509
 10
0.8925310478093813
 20
0.8529956934519509
 10
0.8925310478093813
 20
0.8204051422708493
  0
LWPOLYLINE
  5
22C0D
330
2
100
AcDbEntity
  8
MSK-NS-SCRATCH
100
AcDbPolyline
 90
        4
 70
     1
 43
0.0
 10
0.8570349848172504
 20
0.8204051422708493
 10
0.8570349848172504
 20
0.8529956934519509
 10
0.872846008439307
 20
0.8529956934519509
 10
0.872846008439307
 20
0.8204051422708493
  0
LWPOLYLINE
  5
22C0E
330
2
100
AcDbEntity
  8
MSK-NS-SCRATCH
100
AcDbPolyline
 90
        4
 70
     1
 43
0.0
 10
0.8373499454471691
 20
0.8204051422708493
 10
0.8373499454471691
 20
0.8529956934519509
 10
0.8531609690692256
 20
0.8529956934519509
 10
0.8531609690692256
 20
0.8204051422708493
  0
LWPOLYLINE
  5
22C0F
330
2
100
AcDbEntity
  8
MSK-NS-SCRATCH
100
AcDbPolyline
 90
        4
 70
     1
 43
0.0
 10
0.8176649060770877
 20
0.8204051422708493
 10
0.8176649060770877
 20
0.8529956934519509
 10
0.8334759296991443
 20
0.8529956934519509
 10
0.8334759296991443
 20
0.8204051422708493
  0
LWPOLYLINE
  5
22C10
330
2
100
AcDbEntity
  8
SCRATCH1
100
AcDbPolyline
 90
        4
 70
     1
 43
0.0
 10
0.8984050635573801
 20
0.8607752210113917
 10
0.8905310478094214
 20
0.8607752210113917
 10
0.8905310478094214
 20
0.8244366383342383
 10
0.8984050635573801
 20
0.8244366383342383
  0
LWPOLYLINE
  5
22C11
330
2
100
AcDbEntity
  8
SCRATCH1
100
AcDbPolyline
 90
        4
 70
     1
 43
0.0
 10
0.8196649060770688
 20
0.8607752210113917
 10
0.8117908903291102
 20
0.8607752210113917
 10
0.8117908903291102
 20
0.8244366383342383
 10
0.8196649060770688
 20
0.8244366383342383
  0
LWPOLYLINE
  5
22C12
330
2
100
AcDbEntity
  8
SCRATCH1
100
AcDbPolyline
 90
        4
 70
     1
 43
0.0
 10
0.8393499454471431
 20
0.8607752210113917
 10
0.8314759296991844
 20
0.8607752210113917
 10
0.8314759296991844
 20
0.8244366383342383
 10
0.8393499454471431
 20
0.8244366383342383
  0
LWPOLYLINE
  5
22C13
330
2
100
AcDbEntity
  8
SCRATCH1
100
AcDbPolyline
 90
        4
 70
     1
 43
0.0
 10
0.8590349848172245
 20
0.8607752210113917
 10
0.8511609690692658
 20
0.8607752210113917
 10
0.8511609690692658
 20
0.8244366383342383
 10
0.8590349848172245
 20
0.8244366383342383
  0
LWPOLYLINE
  5
22C14
330
2
100
AcDbEntity
  8
SCRATCH1
100
AcDbPolyline
 90
        4
 70
     1
 43
0.0
 10
0.8787200241873058
 20
0.8607752210113917
 10
0.8708460084393472
 20
0.8607752210113917
 10
0.8708460084393472
 20
0.8244366383342383
 10
0.8787200241873058
 20
0.8244366383342383
  0
CIRCLE
  5
22C47
330
2
100
AcDbEntity
  8
ZDRILL
100
AcDbCircle
 10
0.8550979769432451
 20
0.9109878194365821
 30
0.0
 40
0.0075
  0
CIRCLE
  5
22C48
330
2
100
AcDbEntity
  8
ZDRILL
100
AcDbCircle
 10
0.8550979769432451
 20
0.9409878194365814
 30
0.0
 40
0.0075
  0
CIRCLE
  5
22C49
330
2
100
AcDbEntity
  8
ZDRILL
100
AcDbCircle
 10
0.825097976943244
 20
0.9409878194365814
 30
0.0
 40
0.0075
  0
CIRCLE
  5
22C4A
330
2
100
AcDbEntity
  8
ZDRILL
100
AcDbCircle
 10
0.825097976943244
 20
0.9109878194365892
 30
0.0
 40
0.0075
  0
CIRCLE
  5
22C4B
330
2
100
AcDbEntity
  8
ZDRILL
100
AcDbCircle
 10
0.825097976943244
 20
0.8809878194365969
 30
0.0
 40
0.0075
  0
CIRCLE
  5
22C4C
330
2
100
AcDbEntity
  8
ZDRILL
100
AcDbCircle
 10
0.8550979769432451
 20
0.8809878194365898
 30
0.0
 40
0.0075
  0
CIRCLE
  5
22C4D
330
2
100
AcDbEntity
  8
ZDRILL
100
AcDbCircle
 10
0.8850979769432463
 20
0.8809878194365898
 30
0.0
 40
0.0075
  0
CIRCLE
  5
22C4E
330
2
100
AcDbEntity
  8
ZDRILL
100
AcDbCircle
 10
0.8850979769432463
 20
0.9109878194365821
 30
0.0
 40
0.0075
  0
CIRCLE
  5
22C4F
330
2
100
AcDbEntity
  8
ZDRILL
100
AcDbCircle
 10
0.8850979769432463
 20
0.9409878194365814
 30
0.0
 40
0.0075
  0
CIRCLE
  5
22C51
330
2
100
AcDbEntity
  8
ZDRILL
100
AcDbCircle
 10
1.015097976943266
 20
0.9075727011328096
 30
0.0000000000000001
 40
0.0075
  0
CIRCLE
  5
22C52
330
2
100
AcDbEntity
  8
ZDRILL
100
AcDbCircle
 10
1.015097976943266
 20
0.9735727011328085
 30
0.0000000000000001
 40
0.0075
  0
CIRCLE
  5
22C53
330
2
100
AcDbEntity
  8
ZDRILL
100
AcDbCircle
 10
0.9750979769432674
 20
0.9075727011328096
 30
0.0000000000000001
 40
0.0075
  0
CIRCLE
  5
22C54
330
2
100
AcDbEntity
  8
ZDRILL
100
AcDbCircle
 10
0.9750979769432674
 20
0.9735727011328085
 30
0.0000000000000001
 40
0.0075
  0
CIRCLE
  5
22C69
330
2
100
AcDbEntity
  8
ZDRILL
100
AcDbCircle
 10
0.5752801569684749
 20
1.543572701132812
 30
0.0000000000000001
 40
0.0075
  0
CIRCLE
  5
22C6C
330
2
100
AcDbEntity
  8
ZDRILL
100
AcDbCircle
 10
0.5752801569684749
 20
1.343572701132809
 30
0.0000000000000001
 40
0.0075
  0
CIRCLE
  5
22C6D
330
2
100
AcDbEntity
  8
ZDRILL
100
AcDbCircle
 10
0.5752801569684749
 20
1.44357270113281
 30
0.0000000000000001
 40
0.0075
  0
CIRCLE
  5
22C71
330
2
100
AcDbEntity
  8
ZDRILL
100
AcDbCircle
 10
0.3950979769432408
 20
1.243572701132808
 30
0.0000000000000001
 40
0.0075
  0
TEXT
  5
22C72
330
2
100
AcDbEntity
  8
SLK-NS
100
AcDbText
 10
0.3868328692589031
 20
1.227814544502606
 30
0.0
 40
0.04
  1
J1
100
AcDbText
  0
CIRCLE
  5
22C74
330
2
100
AcDbEntity
  8
ZDRILL
100
AcDbCircle
 10
0.4650979769432411
 20
1.128072701157806
 30
0.0
 40
0.0405
  0
CIRCLE
  5
22C76
330
2
100
AcDbEntity
  8
ZDRILL
100
AcDbCircle
 10
0.3950979769432408
 20
1.143572701132806
 30
0.0000000000000001
 40
0.0075
  0
CIRCLE
  5
22C77
330
2
100
AcDbEntity
  8
ZDRILL
100
AcDbCircle
 10
0.3950979769432408
 20
1.343572701132809
 30
0.0000000000000001
 40
0.0075
  0
CIRCLE
  5
22C78
330
2
100
AcDbEntity
  8
ZDRILL
100
AcDbCircle
 10
0.4950979769432422
 20
1.343572701132809
 30
0.0000000000000001
 40
0.0075
  0
CIRCLE
  5
22C79
330
2
100
AcDbEntity
  8
ZDRILL
100
AcDbCircle
 10
0.3950979769432408
 20
1.543572701132812
 30
0.0000000000000001
 40
0.0075
  0
CIRCLE
  5
22C7A
330
2
100
AcDbEntity
  8
ZDRILL
100
AcDbCircle
 10
0.3950979769432408
 20
1.44357270113281
 30
0.0000000000000001
 40
0.0075
  0
CIRCLE
  5
22C7B
330
2
100
AcDbEntity
  8
ZDRILL
100
AcDbCircle
 10
0.4950979769432422
 20
1.543572701132812
 30
0.0000000000000001
 40
0.0075
  0
CIRCLE
  5
22C7C
330
2
100
AcDbEntity
  8
ZDRILL
100
AcDbCircle
 10
0.4950979769432422
 20
1.44357270113281
 30
0.0000000000000001
 40
0.0075
  0
CIRCLE
  5
22C7D
330
2
100
AcDbEntity
  8
ZDRILL
100
AcDbCircle
 10
0.3950979769432408
 20
1.643572701132813
 30
0.0000000000000001
 40
0.0075
  0
CIRCLE
  5
22C7E
330
2
100
AcDbEntity
  8
ZDRILL
100
AcDbCircle
 10
0.4950979769432422
 20
1.643572701132813
 30
0.0000000000000001
 40
0.0075
  0
LWPOLYLINE
  5
22C81
330
2
100
AcDbEntity
  8
MSK-NS-SCRATCH
100
AcDbPolyline
 90
        4
 70
     1
 43
0.0
 10
0.8830979769432474
 20
1.331722770055203
 10
0.8830979769432474
 20
1.472722770055201
 10
0.82709797694325
 20
1.472722770055201
 10
0.82709797694325
 20
1.331722770055201
  0
LWPOLYLINE
  5
22C82
330
2
100
AcDbEntity
  8
MSK-NS-SCRATCH
100
AcDbPolyline
 90
        4
 70
     1
 43
0.0
 10
0.9830979769432488
 20
1.331722770055203
 10
0.9830979769432488
 20
1.472722770055201
 10
0.9270979769432443
 20
1.472722770055201
 10
0.9270979769432514
 20
1.331722770055201
  0
LWPOLYLINE
  5
22C87
330
2
100
AcDbEntity
  8
MSK-NS-SCRATCH
100
AcDbPolyline
 90
        4
 70
     1
 43
0.0
 10
0.6830979769432446
 20
1.3317227700552
 10
0.6830979769432446
 20
1.472722770055201
 10
0.6270979769432472
 20
1.472722770055201
 10
0.6270979769432472
 20
1.331722770055201
  0
LWPOLYLINE
  5
22C88
330
2
100
AcDbEntity
  8
MSK-NS-SCRATCH
100
AcDbPolyline
 90
        4
 70
     1
 43
0.0
 10
0.7830979769432532
 20
1.331722770055203
 10
0.783097976943246
 20
1.472722770055201
 10
0.7270979769432487
 20
1.472722770055201
 10
0.7270979769432558
 20
1.331722770055201
  0
CIRCLE
  5
22C8A
330
2
100
AcDbEntity
  8
ZDRILL
100
AcDbCircle
 10
0.5950979769432437
 20
1.120155046141218
 30
0.0000000000000001
 40
0.0075
  0
CIRCLE
  5
22C8D
330
2
100
AcDbEntity
  8
ZDRILL
100
AcDbCircle
 10
0.5950979769432437
 20
1.196737391149629
 30
0.0000000000000001
 40
0.0075
  0
LWPOLYLINE
  5
22C94
330
2
100
AcDbEntity
  8
MSK-NS-SCRATCH
100
AcDbPolyline
 90
        4
 70
     1
 43
0.0
 10
0.6830979769432446
 20
1.517722770055192
 10
0.6830979769432446
 20
1.658722770055201
 10
0.6270979769432472
 20
1.658722770055201
 10
0.6270979769432472
 20
1.517722770055201
  0
LWPOLYLINE
  5
22C98
330
2
100
AcDbEntity
  8
MSK-NS-SCRATCH
100
AcDbPolyline
 90
        4
 70
     1
 43
0.0
 10
0.7830979769432532
 20
1.517722770055203
 10
0.783097976943246
 20
1.658722770055201
 10
0.7270979769432487
 20
1.658722770055201
 10
0.7270979769432487
 20
1.517722770055201
  0
LWPOLYLINE
  5
22CB1
330
2
100
AcDbEntity
  8
MSK-NS-SCRATCH
100
AcDbPolyline
 90
        4
 70
     1
 43
0.0
 10
0.8830979769432474
 20
1.517722770055185
 10
0.8830979769432474
 20
1.658722770055201
 10
0.82709797694325
 20
1.658722770055201
 10
0.82709797694325
 20
1.517722770055201
  0
LWPOLYLINE
  5
22CB2
330
2
100
AcDbEntity
  8
MSK-NS-SCRATCH
100
AcDbPolyline
 90
        4
 70
     1
 43
0.0
 10
0.9830979769432488
 20
1.517722770055201
 10
0.9830979769432559
 20
1.658722770055201
 10
0.9270979769432514
 20
1.658722770055201
 10
0.9270979769432443
 20
1.517722770055201
  0
LWPOLYLINE
  5
22CD2
330
2
100
AcDbEntity
  8
MSK-NS-SCRATCH
100
AcDbPolyline
 90
       16
 70
     1
 43
0.0
 10
1.370097976943248
 20
1.200572701157807
 10
1.370097976943248
 20
0.6805727011578098
 10
1.142097976943247
 20
0.6805727011578098
 10
1.142097976943247
 20
0.8255727011578111
 10
1.21509797694383
 20
0.8255727011578093
 10
1.215097976943823
 20
0.8515725633557797
 10
1.325097976943254
 20
0.8515725633557797
 10
1.32509797694324
 20
0.9244550729648155
 10
1.296840698049933
 20
0.9244550729648137
 10
1.296840698049933
 20
0.9565756840185875
 10
1.325097976943247
 20
0.9565756840185857
 10
1.32509797694324
 20
1.029572563370215
 10
1.215097976943837
 20
1.029572563370215
 10
1.21509797694383
 20
1.055572701157809
 10
1.142097976943247
 20
1.055572701157809
 10
1.142097976943247
 20
1.200572701157811
  0
CIRCLE
  5
22CD8
330
2
100
AcDbEntity
  8
ZDRILL
100
AcDbCircle
 10
1.245097976943256
 20
0.753072701157806
 30
0.0
 40
0.0405
  0
CIRCLE
  5
22CD9
330
2
100
AcDbEntity
  8
ZDRILL
100
AcDbCircle
 10
1.215097976943255
 20
0.5375727011828025
 30
0.0000000000000001
 40
0.0075
  0
CIRCLE
  5
22CDA
330
2
100
AcDbEntity
  8
ZDRILL
100
AcDbCircle
 10
1.115097976943253
 20
0.5375727011828025
 30
0.0000000000000001
 40
0.0075
  0
CIRCLE
  5
22CDB
330
2
100
AcDbEntity
  8
ZDRILL
100
AcDbCircle
 10
1.115097976943253
 20
0.437572701182801
 30
0.0000000000000001
 40
0.0075
  0
CIRCLE
  5
22CDC
330
2
100
AcDbEntity
  8
ZDRILL
100
AcDbCircle
 10
1.215097976943255
 20
0.437572701182801
 30
0.0000000000000001
 40
0.0075
  0
CIRCLE
  5
22CDD
330
2
100
AcDbEntity
  8
ZDRILL
100
AcDbCircle
 10
1.115097976943253
 20
0.6375727011828039
 30
0.0000000000000001
 40
0.0075
  0
CIRCLE
  5
22CDE
330
2
100
AcDbEntity
  8
ZDRILL
100
AcDbCircle
 10
1.215097976943255
 20
0.6375727011828039
 30
0.0000000000000001
 40
0.0075
  0
CIRCLE
  5
22CDF
330
2
100
AcDbEntity
  8
ZDRILL
100
AcDbCircle
 10
1.315097976943256
 20
0.5375727011828025
 30
0.0000000000000001
 40
0.0075
  0
CIRCLE
  5
22CE0
330
2
100
AcDbEntity
  8
ZDRILL
100
AcDbCircle
 10
1.315097976943256
 20
0.437572701182801
 30
0.0000000000000001
 40
0.0075
  0
CIRCLE
  5
22CE1
330
2
100
AcDbEntity
  8
ZDRILL
100
AcDbCircle
 10
1.315097976943256
 20
0.6375727011828039
 30
0.0000000000000001
 40
0.0075
  0
CIRCLE
  5
22CE4
330
2
100
AcDbEntity
  8
ZDRILL
100
AcDbCircle
 10
1.115097976943253
 20
0.7375727011828053
 30
0.0000000000000001
 40
0.0075
  0
CIRCLE
  5
22CE5
330
2
100
AcDbEntity
  8
ZDRILL
100
AcDbCircle
 10
1.115097976943253
 20
0.8375727011828049
 30
0.0000000000000001
 40
0.0075
  0
CIRCLE
  5
22CE6
330
2
100
AcDbEntity
  8
ZDRILL
100
AcDbCircle
 10
1.215097976943255
 20
0.8375727011828049
 30
0.0000000000000001
 40
0.0075
  0
CIRCLE
  5
22CE7
330
2
100
AcDbEntity
  8
ZDRILL
100
AcDbCircle
 10
1.135097976943264
 20
0.9075727011328096
 30
0.0000000000000001
 40
0.0075
  0
CIRCLE
  5
22CE8
330
2
100
AcDbEntity
  8
ZDRILL
100
AcDbCircle
 10
1.135097976943264
 20
0.9735727011328085
 30
0.0000000000000001
 40
0.0075
  0
CIRCLE
  5
22CE9
330
2
100
AcDbEntity
  8
ZDRILL
100
AcDbCircle
 10
1.055097976943265
 20
0.9075727011328096
 30
0.0000000000000001
 40
0.0075
  0
CIRCLE
  5
22CEA
330
2
100
AcDbEntity
  8
ZDRILL
100
AcDbCircle
 10
1.055097976943265
 20
0.9735727011328085
 30
0.0000000000000001
 40
0.0075
  0
CIRCLE
  5
22CEB
330
2
100
AcDbEntity
  8
ZDRILL
100
AcDbCircle
 10
1.095097976943264
 20
0.9075727011328096
 30
0.0000000000000001
 40
0.0075
  0
CIRCLE
  5
22CEC
330
2
100
AcDbEntity
  8
ZDRILL
100
AcDbCircle
 10
1.095097976943264
 20
0.9735727011328085
 30
0.0000000000000001
 40
0.0075
  0
CIRCLE
  5
22CED
330
2
100
AcDbEntity
  8
ZDRILL
100
AcDbCircle
 10
1.115097976943253
 20
1.043572701132807
 30
0.0000000000000001
 40
0.0075
  0
CIRCLE
  5
22CEE
330
2
100
AcDbEntity
  8
ZDRILL
100
AcDbCircle
 10
1.255097976943261
 20
0.9075727011328096
 30
0.0000000000000001
 40
0.0075
  0
CIRCLE
  5
22CEF
330
2
100
AcDbEntity
  8
ZDRILL
100
AcDbCircle
 10
1.215097976943262
 20
0.9075727011328096
 30
0.0000000000000001
 40
0.0075
  0
CIRCLE
  5
22CF0
330
2
100
AcDbEntity
  8
ZDRILL
100
AcDbCircle
 10
1.175097976943263
 20
0.9075727011328096
 30
0.0000000000000001
 40
0.0075
  0
CIRCLE
  5
22CF1
330
2
100
AcDbEntity
  8
ZDRILL
100
AcDbCircle
 10
1.255097976943261
 20
0.9735727011328085
 30
0.0000000000000001
 40
0.0075
  0
CIRCLE
  5
22CF2
330
2
100
AcDbEntity
  8
ZDRILL
100
AcDbCircle
 10
1.215097976943262
 20
0.9735727011328085
 30
0.0000000000000001
 40
0.0075
  0
CIRCLE
  5
22CF3
330
2
100
AcDbEntity
  8
ZDRILL
100
AcDbCircle
 10
1.175097976943263
 20
0.9735727011328085
 30
0.0000000000000001
 40
0.0075
  0
CIRCLE
  5
22CF4
330
2
100
AcDbEntity
  8
ZDRILL
100
AcDbCircle
 10
1.215097976943255
 20
1.043572701132807
 30
0.0000000000000001
 40
0.0075
  0
CIRCLE
  5
22CF6
330
2
100
AcDbEntity
  8
ZDRILL
100
AcDbCircle
 10
1.315097976943256
 20
0.7375727011828053
 30
0.0000000000000001
 40
0.0075
  0
CIRCLE
  5
22CF7
330
2
100
AcDbEntity
  8
ZDRILL
100
AcDbCircle
 10
1.315097976943256
 20
0.8375727011828049
 30
0.0000000000000001
 40
0.0075
  0
CIRCLE
  5
22CF9
330
2
100
AcDbEntity
  8
ZDRILL
100
AcDbCircle
 10
1.335097976943259
 20
0.9075727011328096
 30
0.0000000000000001
 40
0.0075
  0
CIRCLE
  5
22CFA
330
2
100
AcDbEntity
  8
ZDRILL
100
AcDbCircle
 10
1.335097976943259
 20
0.9735727011328085
 30
0.0000000000000001
 40
0.0075
  0
CIRCLE
  5
22CFB
330
2
100
AcDbEntity
  8
ZDRILL
100
AcDbCircle
 10
1.29509797694326
 20
0.9075727011328096
 30
0.0000000000000001
 40
0.0075
  0
CIRCLE
  5
22CFC
330
2
100
AcDbEntity
  8
ZDRILL
100
AcDbCircle
 10
1.29509797694326
 20
0.9735727011328085
 30
0.0000000000000001
 40
0.0075
  0
CIRCLE
  5
22CFD
330
2
100
AcDbEntity
  8
ZDRILL
100
AcDbCircle
 10
1.315097976943256
 20
1.043572701132807
 30
0.0000000000000001
 40
0.0075
  0
TEXT
  5
22D09
330
2
100
AcDbEntity
  8
SLK-NS
100
AcDbText
 10
1.232057068413602
 20
1.229893236082506
 30
0.0
 40
0.04
  1
J2
100
AcDbText
  0
CIRCLE
  5
22D0B
330
2
100
AcDbEntity
  8
ZDRILL
100
AcDbCircle
 10
1.245097976943256
 20
1.128072701157806
 30
0.0
 40
0.0405
  0
CIRCLE
  5
22D0F
330
2
100
AcDbEntity
  8
ZDRILL
100
AcDbCircle
 10
1.115097976943253
 20
1.143572701132806
 30
0.0000000000000001
 40
0.0075
  0
CIRCLE
  5
22D15
330
2
100
AcDbEntity
  8
ZDRILL
100
AcDbCircle
 10
1.315097976943256
 20
1.243572701132808
 30
0.0000000000000001
 40
0.0075
  0
CIRCLE
  5
22D16
330
2
100
AcDbEntity
  8
ZDRILL
100
AcDbCircle
 10
1.315097976943256
 20
1.143572701132806
 30
0.0000000000000001
 40
0.0075
  0
CIRCLE
  5
22D17
330
2
100
AcDbEntity
  8
ZDRILL
100
AcDbCircle
 10
1.315097976943256
 20
1.305212577927465
 30
0.0000000000000001
 40
0.0075
  0
TEXT
  5
22D1B
330
2
100
AcDbEntity
  8
SLK-NS
100
AcDbText
 10
1.151205867193191
 20
1.469504313962906
 30
0.0
 40
0.04
  1
P1
100
AcDbText
  0
MTEXT
  5
24CA0
330
2
100
AcDbEntity
  8
LAY1
100
AcDbMText
 10
-18.54961971231132
 20
6.640297612731203
 30
0.0
 40
0.018
 41
0.0
 71
     1
 72
     1
  1

 73
     1
 44
1.0
  0
LWPOLYLINE
  5
2E76E
330
2
100
AcDbEntity
  8
SCRATCH1
100
AcDbPolyline
 90
        4
 70
     1
 43
0.0
 10
0.9053105753684427
 20
0.8755547485704129
 10
0.9053105753684427
 20
0.8676807328224542
 10
0.9416491580455961
 20
0.8676807328224542
 10
0.9416491580455961
 20
0.8755547485704129
  0
LINE
  5
2E87F
330
2
100
AcDbEntity
  8
SLK-NS
100
AcDbLine
 10
0.7783853784612163
 20
1.060298515942725
 30
0.0
 11
0.7583853784612274
 21
1.060298515942725
 31
0.0
  0
LINE
  5
2E880
330
2
100
AcDbEntity
  8
SLK-NS
100
AcDbLine
 10
0.7783853784612092
 20
1.015545180952208
 30
0.0
 11
0.7583853784612274
 21
1.015545180952208
 31
0.0
  0
LWPOLYLINE
  5
2E881
330
2
100
AcDbEntity
  8
MSK-NS-SCRATCH
100
AcDbPolyline
 90
        4
 70
     1
 43
0.0
 10
0.7713853784612255
 20
1.055921848447465
 10
0.7713853784612184
 20
1.019921848447466
 10
0.7503853784612247
 20
1.019921848447466
 10
0.7503853784612247
 20
1.055921848447465
  0
LINE
  5
2E887
330
2
100
AcDbEntity
  8
SLK-NS
100
AcDbLine
 10
0.708385378461216
 20
1.060298515942725
 30
0.0
 11
0.7283853784612049
 21
1.060298515942725
 31
0.0
  0
LINE
  5
2E888
330
2
100
AcDbEntity
  8
SLK-NS
100
AcDbLine
 10
0.708385378461216
 20
1.060298515942725
 30
0.0
 11
0.708385378461216
 21
1.042921848447464
 31
0.0
  0
LINE
  5
2E889
330
2
100
AcDbEntity
  8
SLK-NS
100
AcDbLine
 10
0.7083853784612231
 20
1.015545180952208
 30
0.0
 11
0.708385378461216
 21
1.032921848447462
 31
0.0
  0
LINE
  5
2E88A
330
2
100
AcDbEntity
  8
SLK-NS
100
AcDbLine
 10
0.7083853784612231
 20
1.015545180952208
 30
0.0
 11
0.7283853784612049
 21
1.015545180952208
 31
0.0
  0
LWPOLYLINE
  5
2E88B
330
2
100
AcDbEntity
  8
MSK-NS-SCRATCH
100
AcDbPolyline
 90
        4
 70
     1
 43
0.0
 10
0.7153853784612068
 20
1.055921848447465
 10
0.7153853784612139
 20
1.019921848447466
 10
0.7363853784612076
 20
1.019921848447466
 10
0.7363853784612076
 20
1.055921848447465
  0
LINE
  5
2E88C
330
2
100
AcDbEntity
  8
SLK-NS
100
AcDbLine
 10
0.7383853784612242
 20
1.068921848447428
 30
0.0
 11
0.7183853784612282
 21
1.068921848447435
 31
0.0
  0
LWPOLYLINE
  5
2E892
330
2
100
AcDbEntity
  8
MSK-NS-SCRATCH
100
AcDbPolyline
 90
        4
 70
     1
 43
0.0
 10
0.7313853784612192
 20
1.141921848447467
 10
0.7313853784612192
 20
1.075921848447465
 10
0.6903853784612153
 20
1.075921848447468
 10
0.6903853784612153
 20
1.141921848447467
  0
LWPOLYLINE
  5
2E897
330
2
100
AcDbEntity
  8
MSK-NS-SCRATCH
100
AcDbPolyline
 90
        4
 70
     1
 43
0.0
 10
0.6663853784612144
 20
1.141921848447467
 10
0.6663853784612144
 20
1.075921848447468
 10
0.6253853784612105
 20
1.075921848447468
 10
0.6253853784612318
 20
1.141921848447467
  0
LINE
  5
2E898
330
2
100
AcDbEntity
  8
SLK-NS
100
AcDbLine
 10
0.6183853784611984
 20
1.14892184844743
 30
0.0
 11
0.6383853784611944
 21
1.148921848447437
 31
0.0
  0
LINE
  5
2E899
330
2
100
AcDbEntity
  8
SLK-NS
100
AcDbLine
 10
0.6183853784611984
 20
1.148921848447426
 30
0.0
 11
0.6183853784612055
 21
1.128921848447427
 31
0.0
  0
LINE
  5
2E89A
330
2
100
AcDbEntity
  8
SLK-NS
100
AcDbLine
 10
0.6183853784612055
 20
1.068921848447428
 30
0.0
 11
0.6183853784611984
 21
1.088921848447427
 31
0.0
  0
LINE
  5
2E89B
330
2
100
AcDbEntity
  8
SLK-NS
100
AcDbLine
 10
0.6183853784612055
 20
1.068921848447428
 30
0.0
 11
0.6383853784612015
 21
1.068921848447435
 31
0.0
  0
LINE
  5
2E8A1
330
2
100
AcDbEntity
  8
SLK-NS
100
AcDbLine
 10
0.7783853784612163
 20
1.060298515942725
 30
0.0
 11
0.7783853784612163
 21
1.042921848447464
 31
0.0
  0
LINE
  5
2E8A2
330
2
100
AcDbEntity
  8
SLK-NS
100
AcDbLine
 10
0.7783853784612234
 20
1.015545180952208
 30
0.0
 11
0.7783853784612163
 21
1.032921848447462
 31
0.0
  0
LINE
  5
2E8A3
330
2
100
AcDbEntity
  8
SLK-NS
100
AcDbLine
 10
0.7383853784612242
 20
1.068921848447428
 30
0.0
 11
0.7383853784612171
 21
1.088921848447427
 31
0.0
  0
LWPOLYLINE
  5
2E8C6
330
2
100
AcDbEntity
  8
MSK-NS-SCRATCH
100
AcDbPolyline
 90
        4
 70
     1
 43
0.0
 10
0.8513853784612237
 20
1.055921848447465
 10
0.8513853784612166
 20
1.019921848447466
 10
0.8303853784612229
 20
1.019921848447466
 10
0.8303853784612229
 20
1.055921848447465
  0
LINE
  5
2E8CC
330
2
100
AcDbEntity
  8
SLK-NS
100
AcDbLine
 10
0.7883853784612143
 20
1.060298515942725
 30
0.0
 11
0.8083853784612031
 21
1.060298515942725
 31
0.0
  0
LINE
  5
2E8CD
330
2
100
AcDbEntity
  8
SLK-NS
100
AcDbLine
 10
0.7883853784612143
 20
1.060298515942725
 30
0.0
 11
0.7883853784612143
 21
1.042921848447464
 31
0.0
  0
LINE
  5
2E8CE
330
2
100
AcDbEntity
  8
SLK-NS
100
AcDbLine
 10
0.7883853784612214
 20
1.015545180952208
 30
0.0
 11
0.7883853784612143
 21
1.032921848447462
 31
0.0
  0
LINE
  5
2E8CF
330
2
100
AcDbEntity
  8
SLK-NS
100
AcDbLine
 10
0.7883853784612214
 20
1.015545180952208
 30
0.0
 11
0.8083853784612031
 21
1.015545180952208
 31
0.0
  0
LWPOLYLINE
  5
2E8D0
330
2
100
AcDbEntity
  8
MSK-NS-SCRATCH
100
AcDbPolyline
 90
        4
 70
     1
 43
0.0
 10
0.7953853784612051
 20
1.055921848447465
 10
0.7953853784612122
 20
1.019921848447466
 10
0.8163853784612058
 20
1.019921848447466
 10
0.8163853784612058
 20
1.055921848447465
  0
LWPOLYLINE
  5
2E8D2
330
2
100
AcDbEntity
  8
MSK-NS-SCRATCH
100
AcDbPolyline
 90
        4
 70
     1
 43
0.0
 10
0.9148105754252711
 20
1.055921848447465
 10
0.914810575425264
 20
1.019921848447466
 10
0.8938105754252703
 20
1.019921848447466
 10
0.8938105754252703
 20
1.055921848447465
  0
LINE
  5
2E8D3
330
2
100
AcDbEntity
  8
SLK-NS
100
AcDbLine
 10
0.9218105754252547
 20
1.015545180952208
 30
0.0
 11
0.9018105754252729
 21
1.015545180952208
 31
0.0
  0
LINE
  5
2E8D4
330
2
100
AcDbEntity
  8
SLK-NS
100
AcDbLine
 10
0.9218105754252547
 20
1.015545180952208
 30
0.0
 11
0.9218105754252619
 21
1.032921848447462
 31
0.0
  0
LINE
  5
2E8D5
330
2
100
AcDbEntity
  8
SLK-NS
100
AcDbLine
 10
0.9218105754252619
 20
1.060298515942725
 30
0.0
 11
0.9218105754252619
 21
1.042921848447464
 31
0.0
  0
LINE
  5
2E8D6
330
2
100
AcDbEntity
  8
SLK-NS
100
AcDbLine
 10
0.9218105754252619
 20
1.060298515942725
 30
0.0
 11
0.9018105754252729
 21
1.060298515942725
 31
0.0
  0
LWPOLYLINE
  5
2E8DC
330
2
100
AcDbEntity
  8
MSK-NS-SCRATCH
100
AcDbPolyline
 90
        4
 70
     1
 43
0.0
 10
0.8588105754252524
 20
1.055921848447465
 10
0.8588105754252595
 20
1.019921848447466
 10
0.8798105754252532
 20
1.019921848447466
 10
0.8798105754252532
 20
1.055921848447465
  0
LINE
  5
2E8EC
330
2
100
AcDbEntity
  8
SLK-NS
100
AcDbLine
 10
0.931810575425267
 20
1.015545180952208
 30
0.0
 11
0.9318105754252741
 21
1.032921848447462
 31
0.0
  0
LINE
  5
2E8ED
330
2
100
AcDbEntity
  8
SLK-NS
100
AcDbLine
 10
0.9318105754252741
 20
1.060298515942725
 30
0.0
 11
0.9318105754252741
 21
1.042921848447464
 31
0.0
  0
LINE
  5
2E8F5
330
2
100
AcDbEntity
  8
SLK-NS
100
AcDbLine
 10
0.9318105754252741
 20
1.060298515942725
 30
0.0
 11
0.951810575425263
 21
1.060298515942725
 31
0.0
  0
LINE
  5
2E8F6
330
2
100
AcDbEntity
  8
SLK-NS
100
AcDbLine
 10
0.9318105754252812
 20
1.015545180952208
 30
0.0
 11
0.951810575425263
 21
1.015545180952208
 31
0.0
  0
LWPOLYLINE
  5
2E8F7
330
2
100
AcDbEntity
  8
MSK-NS-SCRATCH
100
AcDbPolyline
 90
        4
 70
     1
 43
0.0
 10
0.9388105754252649
 20
1.055921848447465
 10
0.938810575425272
 20
1.019921848447466
 10
0.9598105754252657
 20
1.019921848447466
 10
0.9598105754252657
 20
1.055921848447465
  0
LINE
  5
2E8FD
330
2
100
AcDbEntity
  8
SLK-NS
100
AcDbLine
 10
1.001810575425274
 20
1.060298515942725
 30
0.0
 11
0.9818105754252854
 21
1.060298515942725
 31
0.0
  0
LINE
  5
2E8FE
330
2
100
AcDbEntity
  8
SLK-NS
100
AcDbLine
 10
1.001810575425274
 20
1.060298515942725
 30
0.0
 11
1.001810575425274
 21
1.042921848447464
 31
0.0
  0
LINE
  5
2E8FF
330
2
100
AcDbEntity
  8
SLK-NS
100
AcDbLine
 10
1.001810575425267
 20
1.015545180952208
 30
0.0
 11
1.001810575425274
 21
1.032921848447462
 31
0.0
  0
LINE
  5
2E900
330
2
100
AcDbEntity
  8
SLK-NS
100
AcDbLine
 10
1.001810575425267
 20
1.015545180952208
 30
0.0
 11
0.9818105754252854
 21
1.015545180952208
 31
0.0
  0
LWPOLYLINE
  5
2E901
330
2
100
AcDbEntity
  8
MSK-NS-SCRATCH
100
AcDbPolyline
 90
        4
 70
     1
 43
0.0
 10
0.9948105754252836
 20
1.055921848447465
 10
0.9948105754252765
 20
1.019921848447466
 10
0.9738105754252828
 20
1.019921848447466
 10
0.9738105754252828
 20
1.055921848447465
  0
LINE
  5
2E920
330
2
100
AcDbEntity
  8
SLK-NS
100
AcDbLine
 10
0.6693140591482419
 20
1.311544232406224
 30
0.0
 11
0.6493140591482458
 21
1.311544232406217
 31
0.0
  0
LINE
  5
2E921
330
2
100
AcDbEntity
  8
SLK-NS
100
AcDbLine
 10
0.6693140591482419
 20
1.221544232406226
 30
0.0
 11
0.6493140591482458
 21
1.221544232406219
 31
0.0
  0
LWPOLYLINE
  5
2E922
330
2
100
AcDbEntity
  8
MSK-NS-SCRATCH
100
AcDbPolyline
 90
        4
 70
     1
 43
0.0
 10
0.6163140591482446
 20
1.304544232406223
 10
0.6163140591482588
 20
1.228544232406224
 10
0.662314059148244
 20
1.228544232406224
 10
0.662314059148244
 20
1.304544232406223
  0
LINE
  5
2E923
330
2
100
AcDbEntity
  8
SLK-NS
100
AcDbLine
 10
0.6693140591482419
 20
1.311544232406224
 30
0.0
 11
0.669314059148249
 21
1.291544232406224
 31
0.0
  0
LINE
  5
2E924
330
2
100
AcDbEntity
  8
SLK-NS
100
AcDbLine
 10
0.6693140591482419
 20
1.22154423240623
 30
0.0
 11
0.6693140591482348
 21
1.241544232406229
 31
0.0
  0
LINE
  5
2E92B
330
2
100
AcDbEntity
  8
SLK-NS
100
AcDbLine
 10
0.4843140591482396
 20
1.22154423240623
 30
0.0
 11
0.4843140591482467
 21
1.241544232406229
 31
0.0
  0
LINE
  5
2E92C
330
2
100
AcDbEntity
  8
SLK-NS
100
AcDbLine
 10
0.4843140591482609
 20
1.291544232406175
 30
0.0
 11
0.4843140591482538
 21
1.31154423240622
 31
0.0
  0
LINE
  5
2E92F
330
2
100
AcDbEntity
  8
SLK-NS
100
AcDbLine
 10
0.4843140591482396
 20
1.221544232406226
 30
0.0
 11
0.5043140591482356
 21
1.221544232406219
 31
0.0
  0
LINE
  5
2E930
330
2
100
AcDbEntity
  8
SLK-NS
100
AcDbLine
 10
0.5043140591482356
 20
1.311544232406224
 30
0.0
 11
0.4843140591482325
 21
1.311544232406224
 31
0.0
  0
LWPOLYLINE
  5
2E931
330
2
100
AcDbEntity
  8
MSK-NS-SCRATCH
100
AcDbPolyline
 90
        4
 70
     1
 43
0.0
 10
0.537314059148244
 20
1.304544232406224
 10
0.537314059148244
 20
1.228544232406224
 10
0.4913140591482304
 20
1.228544232406224
 10
0.4913140591482375
 20
1.304544232406221
  0
LWPOLYLINE
  5
2E967
330
2
100
AcDbEntity
  8
MSK-NS-SCRATCH
100
AcDbPolyline
 90
        4
 70
     1
 43
0.0
 10
0.7863853784612154
 20
1.141921848447467
 10
0.7863853784612154
 20
1.075921848447468
 10
0.7453853784612115
 20
1.075921848447468
 10
0.7453853784612328
 20
1.141921848447467
  0
LINE
  5
2E968
330
2
100
AcDbEntity
  8
SLK-NS
100
AcDbLine
 10
0.7383853784611994
 20
1.14892184844743
 30
0.0
 11
0.7583853784611954
 21
1.148921848447437
 31
0.0
  0
LINE
  5
2E969
330
2
100
AcDbEntity
  8
SLK-NS
100
AcDbLine
 10
0.7383853784612065
 20
1.068921848447428
 30
0.0
 11
0.7583853784612025
 21
1.068921848447435
 31
0.0
  0
LINE
  5
2E96A
330
2
100
AcDbEntity
  8
SLK-NS
100
AcDbLine
 10
0.7383853784611994
 20
1.148921848447426
 30
0.0
 11
0.7383853784612065
 21
1.128921848447427
 31
0.0
  0
LINE
  5
2E96B
330
2
100
AcDbEntity
  8
SLK-NS
100
AcDbLine
 10
0.7383853784612065
 20
1.068921848447428
 30
0.0
 11
0.7383853784611994
 21
1.088921848447427
 31
0.0
  0
LWPOLYLINE
  5
2E971
330
2
100
AcDbEntity
  8
MSK-NS-SCRATCH
100
AcDbPolyline
 90
        4
 70
     1
 43
0.0
 10
0.8513853784612201
 20
1.141921848447467
 10
0.8513853784612201
 20
1.075921848447465
 10
0.8103853784612162
 20
1.075921848447468
 10
0.8103853784612162
 20
1.141921848447467
  0
LWPOLYLINE
  5
2E97E
330
2
100
AcDbEntity
  8
MSK-NS-SCRATCH
100
AcDbPolyline
 90
        4
 70
     1
 43
0.0
 10
0.8588105754252701
 20
1.141921848447467
 10
0.8588105754252701
 20
1.075921848447465
 10
0.899810575425274
 20
1.075921848447468
 10
0.899810575425274
 20
1.141921848447467
  0
LINE
  5
2E984
330
2
100
AcDbEntity
  8
SLK-NS
100
AcDbLine
 10
0.9718105754252839
 20
1.068921848447428
 30
0.0
 11
0.971810575425291
 21
1.088921848447427
 31
0.0
  0
LINE
  5
2E985
330
2
100
AcDbEntity
  8
SLK-NS
100
AcDbLine
 10
0.971810575425291
 20
1.148921848447426
 30
0.0
 11
0.9718105754252839
 21
1.128921848447427
 31
0.0
  0
LINE
  5
2E986
330
2
100
AcDbEntity
  8
SLK-NS
100
AcDbLine
 10
0.9718105754252839
 20
1.068921848447428
 30
0.0
 11
0.9518105754252879
 21
1.068921848447435
 31
0.0
  0
LINE
  5
2E987
330
2
100
AcDbEntity
  8
SLK-NS
100
AcDbLine
 10
0.971810575425291
 20
1.14892184844743
 30
0.0
 11
0.951810575425295
 21
1.148921848447437
 31
0.0
  0
LWPOLYLINE
  5
2E988
330
2
100
AcDbEntity
  8
MSK-NS-SCRATCH
100
AcDbPolyline
 90
        4
 70
     1
 43
0.0
 10
0.923810575425275
 20
1.141921848447467
 10
0.923810575425275
 20
1.075921848447468
 10
0.9648105754252789
 20
1.075921848447468
 10
0.9648105754252576
 20
1.141921848447467
  0
LINE
  5
2E98B
330
2
100
AcDbEntity
  8
SLK-NS
100
AcDbLine
 10
0.9718105754252661
 20
1.068921848447428
 30
0.0
 11
0.9718105754252732
 21
1.088921848447427
 31
0.0
  0
CIRCLE
  5
2E9C1
330
2
100
AcDbEntity
  8
ZDRILL
100
AcDbCircle
 10
0.8554613080732629
 20
1.066307950188535
 30
0.0
 40
0.0075
  0
LWPOLYLINE
  5
2E9F2
330
2
100
AcDbEntity
  8
MSK-NS-SCRATCH
100
AcDbPolyline
 90
        4
 70
     1
 43
0.0
 10
0.7373140591482468
 20
1.304544232406223
 10
0.7373140591482468
 20
1.228544232406222
 10
0.6913140591482332
 20
1.228544232406222
 10
0.6913140591482403
 20
1.304544232406219
  0
LINE
  5
2E9F3
330
2
100
AcDbEntity
  8
SLK-NS
100
AcDbLine
 10
0.7043140591482385
 20
1.311544232406222
 30
0.0
 11
0.6843140591482353
 21
1.311544232406222
 31
0.0
  0
LINE
  5
2E9F4
330
2
100
AcDbEntity
  8
SLK-NS
100
AcDbLine
 10
0.6843140591482424
 20
1.221544232406224
 30
0.0
 11
0.7043140591482385
 21
1.221544232406217
 31
0.0
  0
LINE
  5
2E9F5
330
2
100
AcDbEntity
  8
SLK-NS
100
AcDbLine
 10
0.6843140591482637
 20
1.291544232406173
 30
0.0
 11
0.6843140591482566
 21
1.311544232406219
 31
0.0
  0
LINE
  5
2E9F6
330
2
100
AcDbEntity
  8
SLK-NS
100
AcDbLine
 10
0.6843140591482424
 20
1.221544232406228
 30
0.0
 11
0.6843140591482495
 21
1.241544232406227
 31
0.0
  0
LINE
  5
2EA21
330
2
100
AcDbEntity
  8
SLK-NS
100
AcDbLine
 10
1.025881894738255
 20
1.221544232406228
 30
0.0
 11
1.025881894738247
 21
1.241544232406227
 31
0.0
  0
LINE
  5
2EA22
330
2
100
AcDbEntity
  8
SLK-NS
100
AcDbLine
 10
1.025881894738233
 20
1.291544232406173
 30
0.0
 11
1.02588189473824
 21
1.311544232406219
 31
0.0
  0
LINE
  5
2EA23
330
2
100
AcDbEntity
  8
SLK-NS
100
AcDbLine
 10
1.025881894738255
 20
1.221544232406224
 30
0.0
 11
1.005881894738259
 21
1.221544232406217
 31
0.0
  0
LINE
  5
2EA24
330
2
100
AcDbEntity
  8
SLK-NS
100
AcDbLine
 10
1.005881894738259
 20
1.311544232406222
 30
0.0
 11
1.025881894738262
 21
1.311544232406222
 31
0.0
  0
LWPOLYLINE
  5
2EA25
330
2
100
AcDbEntity
  8
MSK-NS-SCRATCH
100
AcDbPolyline
 90
        4
 70
     1
 43
0.0
 10
0.9728818947382507
 20
1.304544232406223
 10
0.9728818947382507
 20
1.228544232406222
 10
1.018881894738264
 20
1.228544232406222
 10
1.018881894738257
 20
1.304544232406219
  0
LWPOLYLINE
  5
2EA44
330
2
100
AcDbEntity
  8
MSK-NS-SCRATCH
100
AcDbPolyline
 90
        4
 70
     1
 43
0.0
 10
0.8163140591482473
 20
1.304544232406221
 10
0.8938818947382358
 20
1.304544232406221
 10
0.8938818947382358
 20
1.228544232406222
 10
0.8163140591482473
 20
1.228544232406222
  0
LINE
  5
2EAB0
330
2
100
AcDbEntity
  8
SLK-NS
100
AcDbLine
 10
1.019097976940326
 20
0.4701004866891214
 30
0.0
 11
1.019097976940326
 21
0.490100486689121
 31
0.0
  0
LINE
  5
2EAB1
330
2
100
AcDbEntity
  8
SLK-NS
100
AcDbLine
 10
1.019097976940326
 20
0.490100486689121
 30
0.0
 11
0.9990979769403303
 21
0.490100486689121
 31
0.0
  0
LWPOLYLINE
  5
2EABA
330
2
100
AcDbEntity
  8
MSK-NS-SCRATCH
100
AcDbPolyline
 90
        4
 70
     1
 43
0.0
 10
0.8830979769403448
 20
0.3986004866891211
 10
0.8830979769403377
 20
0.5396004866891211
 10
0.8270979769403403
 20
0.5396004866891229
 10
0.8270979769403403
 20
0.3986004866891211
  0
LWPOLYLINE
  5
2EABB
330
2
100
AcDbEntity
  8
MSK-NS-SCRATCH
100
AcDbPolyline
 90
        4
 70
     1
 43
0.0
 10
0.9830979769403391
 20
0.3986004866891211
 10
0.9830979769403391
 20
0.5396004866891229
 10
0.9270979769403417
 20
0.5396004866891211
 10
0.9270979769403417
 20
0.3986004866891211
  0
LWPOLYLINE
  5
2EAC2
330
2
100
AcDbEntity
  8
MSK-NS-SCRATCH
100
AcDbPolyline
 90
        4
 70
     1
 43
0.0
 10
0.7830979769403364
 20
0.3986004866891211
 10
0.7830979769403364
 20
0.5396004866891211
 10
0.727097976940339
 20
0.5396004866891211
 10
0.727097976940339
 20
0.3986004866891211
  0
LINE
  5
2EAC6
330
2
100
AcDbEntity
  8
SLK-NS
100
AcDbLine
 10
0.6910979769403376
 20
0.490100486689121
 30
0.0
 11
0.6910979769403518
 21
0.4701004866891214
 31
0.0
  0
LINE
  5
2EAC7
330
2
100
AcDbEntity
  8
SLK-NS
100
AcDbLine
 10
0.7110979769403479
 20
0.490100486689121
 30
0.0
 11
0.6910979769403376
 21
0.490100486689121
 31
0.0
  0
LINE
  5
2EAD0
330
2
100
AcDbEntity
  8
SLK-NS
100
AcDbLine
 10
0.9990979769403303
 20
0.2621004866891248
 30
0.0
 11
1.019097976940326
 21
0.2621004866891248
 31
0.0
  0
LINE
  5
2EAD1
330
2
100
AcDbEntity
  8
SLK-NS
100
AcDbLine
 10
1.019097976940326
 20
0.2621004866891248
 30
0.0
 11
1.019097976940326
 21
0.2821004866891243
 31
0.0
  0
LWPOLYLINE
  5
2EADA
330
2
100
AcDbEntity
  8
LAY1
100
AcDbPolyline
 90
        4
 70
     1
 43
0.0
 10
0.8800979769403305
 20
0.215600486689123
 10
0.8300979769403191
 20
0.215600486689123
 10
0.8300979769403191
 20
0.3506004866891246
 10
0.8800979769403305
 20
0.3506004866891246
  0
LWPOLYLINE
  5
2EADB
330
2
100
AcDbEntity
  8
MSK-NS-SCRATCH
100
AcDbPolyline
 90
        4
 70
     1
 43
0.0
 10
0.8830979769403448
 20
0.3536004866891229
 10
0.8270979769403474
 20
0.3536004866891194
 10
0.8270979769403403
 20
0.2126004866891211
 10
0.8830979769403377
 20
0.2126004866891211
  0
LWPOLYLINE
  5
2EADC
330
2
100
AcDbEntity
  8
MSK-NS-SCRATCH
100
AcDbPolyline
 90
        4
 70
     1
 43
0.0
 10
0.9830979769403391
 20
0.3536004866891229
 10
0.9270979769403417
 20
0.3536004866891229
 10
0.9270979769403417
 20
0.2126004866891211
 10
0.9830979769403391
 20
0.2126004866891211
  0
LWPOLYLINE
  5
2EAE2
330
2
100
AcDbEntity
  8
MSK-NS-SCRATCH
100
AcDbPolyline
 90
        4
 70
     1
 43
0.0
 10
0.7830979769403506
 20
0.3536004866891229
 10
0.727097976940339
 20
0.3536004866891211
 10
0.727097976940339
 20
0.2126004866891211
 10
0.7830979769403364
 20
0.2126004866891211
  0
LINE
  5
2EAE6
330
2
100
AcDbEntity
  8
SLK-NS
100
AcDbLine
 10
0.6910979769403376
 20
0.2621004866891248
 30
0.0
 11
0.6910979769403376
 21
0.2821004866891243
 31
0.0
  0
LINE
  5
2EAE7
330
2
100
AcDbEntity
  8
SLK-NS
100
AcDbLine
 10
0.7110979769403479
 20
0.2621004866891248
 30
0.0
 11
0.6910979769403376
 21
0.2621004866891248
 31
0.0
  0
TEXT
  5
2EAF1
330
2
100
AcDbEntity
  8
SLK-NS
100
AcDbText
 10
0.9466323168268679
 20
0.576179278827107
 30
0.0
 40
0.04
  1
P2
100
AcDbText
  0
LINE
  5
2EAF7
330
2
100
AcDbEntity
  8
SLK-NS
100
AcDbLine
 10
0.7583853784612238
 20
0.8369764156540986
 30
0.0
 11
0.7583853784612167
 21
0.8543530831493528
 31
0.0
  0
LINE
  5
2EAF8
330
2
100
AcDbEntity
  8
SLK-NS
100
AcDbLine
 10
0.7583853784612167
 20
0.8817297506446157
 30
0.0
 11
0.7583853784612167
 21
0.8643530831493544
 31
0.0
  0
LINE
  5
2EAFA
330
2
100
AcDbEntity
  8
SLK-NS
100
AcDbLine
 10
0.7583853784612167
 20
0.8817297506446157
 30
0.0
 11
0.7383853784612278
 21
0.8817297506446157
 31
0.0
  0
LINE
  5
2EAFB
330
2
100
AcDbEntity
  8
SLK-NS
100
AcDbLine
 10
0.7583853784612096
 20
0.8369764156540986
 30
0.0
 11
0.7383853784612278
 21
0.8369764156540986
 31
0.0
  0
LWPOLYLINE
  5
2EAFC
330
2
100
AcDbEntity
  8
MSK-NS-SCRATCH
100
AcDbPolyline
 90
        4
 70
     1
 43
0.0
 10
0.7513853784612259
 20
0.8773530831493561
 10
0.7513853784612188
 20
0.8413530831493565
 10
0.7303853784612251
 20
0.8413530831493565
 10
0.7303853784612251
 20
0.8773530831493561
  0
LINE
  5
2EAFE
330
2
100
AcDbEntity
  8
SLK-NS
100
AcDbLine
 10
0.6883853784612164
 20
0.8817297506446157
 30
0.0
 11
0.7083853784612053
 21
0.8817297506446157
 31
0.0
  0
LINE
  5
2EAFF
330
2
100
AcDbEntity
  8
SLK-NS
100
AcDbLine
 10
0.6883853784612164
 20
0.8817297506446157
 30
0.0
 11
0.6883853784612164
 21
0.8643530831493544
 31
0.0
  0
LINE
  5
2EB00
330
2
100
AcDbEntity
  8
SLK-NS
100
AcDbLine
 10
0.6883853784612235
 20
0.8369764156540986
 30
0.0
 11
0.6883853784612164
 21
0.8543530831493528
 31
0.0
  0
LINE
  5
2EB01
330
2
100
AcDbEntity
  8
SLK-NS
100
AcDbLine
 10
0.6883853784612235
 20
0.8369764156540986
 30
0.0
 11
0.7083853784612053
 21
0.8369764156540986
 31
0.0
  0
LWPOLYLINE
  5
2EB02
330
2
100
AcDbEntity
  8
MSK-NS-SCRATCH
100
AcDbPolyline
 90
        4
 70
     1
 43
0.0
 10
0.6953853784612072
 20
0.8773530831493561
 10
0.6953853784612143
 20
0.8413530831493565
 10
0.716385378461208
 20
0.8413530831493565
 10
0.716385378461208
 20
0.8773530831493561
  0
LWPOLYLINE
  5
2EB38
330
2
100
AcDbEntity
  8
LAY1
100
AcDbPolyline
 90
        4
 70
     1
 43
0.0
 10
0.9800979769403248
 20
0.401600486689123
 10
0.9300979769403134
 20
0.401600486689123
 10
0.9300979769403134
 20
0.5366004866891246
 10
0.9800979769403248
 20
0.5366004866891246
  0
LWPOLYLINE
  5
2EB39
330
2
100
AcDbEntity
  8
LAY1
100
AcDbPolyline
 90
        4
 70
     1
 43
0.0
 10
0.8800979769403269
 20
0.401600486689123
 10
0.8300979769403156
 20
0.401600486689123
 10
0.8300979769403156
 20
0.5366004866891246
 10
0.8800979769403269
 20
0.5366004866891246
  0
CIRCLE
  5
2EB3F
330
2
100
AcDbEntity
  8
ZDRILL
100
AcDbCircle
 10
0.6950979769403283
 20
0.3318518241964217
 30
0.0000000000000001
 40
0.0075
  0
CIRCLE
  5
2EB40
330
2
100
AcDbEntity
  8
ZDRILL
100
AcDbCircle
 10
1.015097976940335
 20
0.3318518241964217
 30
0.0000000000000001
 40
0.0075
  0
LINE
  5
2EB41
330
2
100
AcDbEntity
  8
SLK-NS
100
AcDbLine
 10
0.6110979769432561
 20
1.609222770055199
 30
0.0
 11
0.5910979769432459
 21
1.609222770055199
 31
0.0
  0
LINE
  5
2EB42
330
2
100
AcDbEntity
  8
SLK-NS
100
AcDbLine
 10
0.5910979769432459
 20
1.609222770055199
 30
0.0
 11
0.5910979769432601
 21
1.5892227700552
 31
0.0
  0
LINE
  5
2EB43
330
2
100
AcDbEntity
  8
SLK-NS
100
AcDbLine
 10
1.119097976943237
 20
1.609222770055199
 30
0.0
 11
1.099097976943241
 21
1.609222770055199
 31
0.0
  0
LINE
  5
2EB44
330
2
100
AcDbEntity
  8
SLK-NS
100
AcDbLine
 10
1.119097976943237
 20
1.5892227700552
 30
0.0
 11
1.119097976943237
 21
1.609222770055199
 31
0.0
  0
LINE
  5
2EB45
330
2
100
AcDbEntity
  8
SLK-NS
100
AcDbLine
 10
1.119097976943237
 20
1.401222770055205
 30
0.0
 11
1.119097976943237
 21
1.381222770055205
 31
0.0
  0
LINE
  5
2EB46
330
2
100
AcDbEntity
  8
SLK-NS
100
AcDbLine
 10
1.119097976943237
 20
1.381222770055205
 30
0.0
 11
1.099097976943241
 21
1.381222770055205
 31
0.0
  0
LINE
  5
2EB47
330
2
100
AcDbEntity
  8
SLK-NS
100
AcDbLine
 10
0.5910979769432459
 20
1.381222770055205
 30
0.0
 11
0.5910979769432601
 21
1.401222770055205
 31
0.0
  0
LINE
  5
2EB48
330
2
100
AcDbEntity
  8
SLK-NS
100
AcDbLine
 10
0.6110979769432561
 20
1.381222770055205
 30
0.0
 11
0.5910979769432459
 21
1.381222770055205
 31
0.0
  0
LINE
  5
2EB4F
330
2
100
AcDbEntity
  8
SLK-NS
100
AcDbLine
 10
0.8550979769432487
 20
1.221544232406215
 30
0.0
 11
0.8750979769432447
 21
1.221544232406208
 31
0.0
  0
LINE
  5
2EB50
330
2
100
AcDbEntity
  8
SLK-NS
100
AcDbLine
 10
0.8550979769432487
 20
1.221544232406219
 30
0.0
 11
0.8550979769432558
 21
1.241544232406218
 31
0.0
  0
LINE
  5
2EB55
330
2
100
AcDbEntity
  8
SLK-NS
100
AcDbLine
 10
0.8550979769432487
 20
1.221544232406215
 30
0.0
 11
0.8350979769432527
 21
1.221544232406208
 31
0.0
  0
LINE
  5
2EB56
330
2
100
AcDbEntity
  8
SLK-NS
100
AcDbLine
 10
0.8550979769432487
 20
1.311544232406228
 30
0.0
 11
0.8550979769432558
 21
1.291544232406228
 31
0.0
  0
LINE
  5
2EB57
330
2
100
AcDbEntity
  8
SLK-NS
100
AcDbLine
 10
0.8550979769432487
 20
1.311544232406231
 30
0.0
 11
0.8750979769432447
 21
1.311544232406238
 31
0.0
  0
LINE
  5
2EB58
330
2
100
AcDbEntity
  8
SLK-NS
100
AcDbLine
 10
0.8550979769432487
 20
1.311544232406231
 30
0.0
 11
0.8350979769432527
 21
1.311544232406238
 31
0.0
  0
LINE
  5
2EB5C
330
2
100
AcDbEntity
  8
SLK-NS
100
AcDbLine
 10
0.855097976943238
 20
1.14892184844744
 30
0.0
 11
0.835097976943242
 21
1.148921848447447
 31
0.0
  0
LINE
  5
2EB5D
330
2
100
AcDbEntity
  8
SLK-NS
100
AcDbLine
 10
0.855097976943238
 20
1.148921848447437
 30
0.0
 11
0.8550979769432309
 21
1.128921848447437
 31
0.0
  0
LINE
  5
2EB5E
330
2
100
AcDbEntity
  8
SLK-NS
100
AcDbLine
 10
0.855097976943238
 20
1.14892184844744
 30
0.0
 11
0.8750979769432341
 21
1.148921848447447
 31
0.0
  0
LINE
  5
2EB5F
330
2
100
AcDbEntity
  8
SLK-NS
100
AcDbLine
 10
0.855097976943238
 20
1.068921848447501
 30
0.0
 11
0.8750979769432341
 21
1.068921848447494
 31
0.0
  0
LINE
  5
2EB60
330
2
100
AcDbEntity
  8
SLK-NS
100
AcDbLine
 10
0.855097976943238
 20
1.068921848447504
 30
0.0
 11
0.8550979769432309
 21
1.088921848447504
 31
0.0
  0
LINE
  5
2EB61
330
2
100
AcDbEntity
  8
SLK-NS
100
AcDbLine
 10
0.855097976943238
 20
1.068921848447501
 30
0.0
 11
0.835097976943242
 21
1.068921848447494
 31
0.0
  0
CIRCLE
  5
2EB62
330
2
100
AcDbEntity
  8
ZDRILL
100
AcDbCircle
 10
0.8554613080732629
 20
1.169941593137826
 30
0.0
 40
0.0075
  0
CIRCLE
  5
2EB63
330
2
100
AcDbEntity
  8
ZDRILL
100
AcDbCircle
 10
0.8554613080732629
 20
1.209276617842681
 30
0.0
 40
0.0075
  0
LINE
  5
2EB66
330
2
100
AcDbEntity
  8
SLK-NS
100
AcDbLine
 10
0.8551578183735983
 20
1.060298515942725
 30
0.0
 11
0.8351578183736094
 21
1.060298515942725
 31
0.0
  0
LINE
  5
2EB67
330
2
100
AcDbEntity
  8
SLK-NS
100
AcDbLine
 10
0.8551578183735983
 20
1.060298515942725
 30
0.0
 11
0.8551578183735983
 21
1.042921848447464
 31
0.0
  0
LINE
  5
2EB68
330
2
100
AcDbEntity
  8
SLK-NS
100
AcDbLine
 10
0.8551578183735983
 20
1.060298515942725
 30
0.0
 11
0.8751578183735873
 21
1.060298515942725
 31
0.0
  0
LINE
  5
2EB69
330
2
100
AcDbEntity
  8
SLK-NS
100
AcDbLine
 10
0.8551578183735983
 20
1.015545180952208
 30
0.0
 11
0.8751578183735873
 21
1.015545180952208
 31
0.0
  0
LINE
  5
2EB6A
330
2
100
AcDbEntity
  8
SLK-NS
100
AcDbLine
 10
0.8551578183735983
 20
1.015545180952208
 30
0.0
 11
0.8551578183735983
 21
1.032921848447469
 31
0.0
  0
LINE
  5
2EB6B
330
2
100
AcDbEntity
  8
SLK-NS
100
AcDbLine
 10
0.8551578183735983
 20
1.015545180952208
 30
0.0
 11
0.8351578183736094
 21
1.015545180952208
 31
0.0
  0
CIRCLE
  5
2EB6D
330
2
100
AcDbEntity
  8
SLK-NS
100
AcDbCircle
 10
0.7545101644234081
 20
0.991849612076364
 30
0.0
 40
0.01125
  0
LINE
  5
2EB6E
330
2
100
AcDbEntity
  8
SLK-NS
100
AcDbLine
 10
0.7383853784611994
 20
1.14892184844743
 30
0.0
 11
0.7183853784612034
 21
1.148921848447437
 31
0.0
  0
LWPOLYLINE
  5
2EB72
330
2
100
AcDbEntity
  8
pad1
100
AcDbPolyline
 90
       38
 70
     1
 43
0.0
 10
0.8280704178879929
 20
0.9956326724975506
 10
0.8280704178879894
 20
1.015632672497543
 10
0.8133853784612199
 20
1.015632672497559
 10
0.8133853784612199
 20
1.052921848447467
 10
0.8033853784618969
 20
1.052921848447466
 10
0.8033853784618933
 20
1.06792184844954
 10
0.7833853784612153
 20
1.067921848449541
 10
0.7833853784612046
 20
1.138921848447467
 10
0.7635428587763009
 20
1.138921848447467
 10
0.7635428587762974
 20
1.218921848447465
 10
0.7343140591482467
 20
1.218921848447466
 10
0.7343140591482467
 20
1.301544232406222
 10
0.7143140591482436
 20
1.301544232406222
 10
0.7143140591482471
 20
1.311544232406222
 10
0.7500979769432555
 20
1.311544232406222
 10
0.7500979769432555
 20
1.3347227700552
 10
0.780097976943253
 20
1.334722770055203
 10
0.780097976943253
 20
1.469722770055201
 10
0.7300979769432559
 20
1.469722770055201
 10
0.7300979769432594
 20
1.331544232406221
 10
0.6943140591482369
 20
1.331544232406223
 10
0.6943140591482333
 20
1.231544232406222
 10
0.7143140591482471
 20
1.231544232406222
 10
0.7143140591482471
 20
1.198921848447464
 10
0.7435428587762978
 20
1.198921848447465
 10
0.7435428587763049
 20
1.078921848447468
 10
0.7733853784598282
 20
1.078921848447468
 10
0.7733853784598317
 20
1.062921848448852
 10
0.7983853784612017
 20
1.06292184844885
 10
0.7983853784612088
 20
1.022921848447466
 10
0.8083853784605281
 20
1.022921848447466
 10
0.8083853784605281
 20
1.010632672496871
 10
0.8230704178879939
 20
1.010632672496857
 10
0.8230704178879939
 20
0.9956326724975506
 10
0.8196649060769694
 20
0.9956326724975532
 10
0.8196649060769658
 20
0.9690114414838335
 10
0.8314759296990139
 20
0.9690114414838335
 10
0.8314759296990281
 20
0.9956326724975514
  0
LWPOLYLINE
  5
2EBA6
330
2
100
AcDbEntity
  8
pad1
100
AcDbPolyline
 90
       36
 70
     1
 43
0.0
 10
0.7633853784603169
 20
1.000632672496898
 10
0.8033853785179196
 20
1.000632672496857
 10
0.8033853785179196
 20
0.9956326724975497
 10
0.7999798667068916
 20
0.9956326724975532
 10
0.7999798667068916
 20
0.9690114414838335
 10
0.8117908903289396
 20
0.9690114414838335
 10
0.8117908903289539
 20
0.9956326724975523
 10
0.8083853785179151
 20
0.9956326724975514
 10
0.8083853785179151
 20
1.005632672497543
 10
0.7683853784612147
 20
1.005632672497585
 10
0.7683853784612183
 20
1.052921848447467
 10
0.7583853784618953
 20
1.052921848447467
 10
0.7583853784618917
 20
1.06792184844954
 10
0.7332278981461294
 20
1.067921848449542
 10
0.7332278981461223
 20
1.138921848447469
 10
0.713385378461215
 20
1.138921848447469
 10
0.713385378461215
 20
1.188921848447464
 10
0.6593140591482545
 20
1.188921848447463
 10
0.6593140591482545
 20
1.334722770055202
 10
0.6800979769432445
 20
1.334722770055203
 10
0.6800979769432445
 20
1.469722770055201
 10
0.6300979769432474
 20
1.469722770055201
 10
0.6300979769432474
 20
1.334722770055203
 10
0.6393140591482478
 20
1.334722770055202
 10
0.6393140591482514
 20
1.301544232406224
 10
0.6193140591482447
 20
1.301544232406224
 10
0.6193140591482447
 20
1.231544232406224
 10
0.6393140591482407
 20
1.231544232406224
 10
0.6393140591482656
 20
1.168921848447464
 10
0.6933853784612154
 20
1.168921848447465
 10
0.6933853784612154
 20
1.078921848447468
 10
0.7232278981447458
 20
1.078921848447468
 10
0.7232278981447458
 20
1.062921848448852
 10
0.7533853784612177
 20
1.06292184844885
 10
0.7533853784612177
 20
1.022921848447466
 10
0.7633853784606047
 20
1.022921848447462
  0
LWPOLYLINE
  5
2EBD2
330
2
100
AcDbEntity
  8
pad1
100
AcDbPolyline
 90
       38
 70
     1
 43
0.0
 10
0.960097976943242
 20
1.3347227700552
 10
0.960097976943242
 20
1.311544232406222
 10
0.9958818947382503
 20
1.311544232406222
 10
0.9958818947382539
 20
1.301544232406222
 10
0.9758818947382508
 20
1.301544232406222
 10
0.9758818947382508
 20
1.218921848447466
 10
0.9466530951102001
 20
1.218921848447465
 10
0.9466530951101965
 20
1.138921848447467
 10
0.9268105754252751
 20
1.138921848447469
 10
0.9268105754252751
 20
1.06792184844954
 10
0.8968105754252562
 20
1.067921848449542
 10
0.8968105754252562
 20
1.015632672497543
 10
0.8624404966281566
 20
1.01563267249758
 10
0.8624404966281566
 20
0.9956326724975497
 10
0.8590349848171321
 20
0.9956326724975532
 10
0.8590349848171285
 20
0.9690114414838335
 10
0.8708460084391766
 20
0.9690114414838335
 10
0.8708460084391909
 20
0.9956326724975514
 10
0.8674404966281556
 20
0.9956326724975497
 10
0.8674404966281556
 20
1.010632672496882
 10
0.9018105754259515
 20
1.010632672496845
 10
0.901810575425948
 20
1.022921848447458
 10
0.9118105754252603
 20
1.022921848447462
 10
0.9118105754252674
 20
1.052921848447466
 10
0.9018105754259515
 20
1.052921848447467
 10
0.9018105754259515
 20
1.062921848448851
 10
0.9318105754259669
 20
1.062921848448849
 10
0.9318105754259669
 20
1.078921848447468
 10
0.966653095110189
 20
1.078921848447468
 10
0.9666530951101997
 20
1.198921848447465
 10
0.9958818947382503
 20
1.198921848447464
 10
0.9958818947382539
 20
1.231544232406222
 10
1.015881894738264
 20
1.231544232406222
 10
1.01588189473826
 20
1.331544232406223
 10
0.980097976943238
 20
1.331544232406221
 10
0.9800979769432487
 20
1.469722770055201
 10
0.930097976943248
 20
1.469722770055201
 10
0.9300979769432444
 20
1.3347227700552
  0
LWPOLYLINE
  5
2EBD3
330
2
100
AcDbEntity
  8
SCRATCH1
100
AcDbPolyline
 90
       42
 70
     1
 43
0.0
 10
0.645885378461216
 20
1.078921848447468
 10
0.6633853784612143
 20
1.078921848447468
 10
0.6633853784612143
 20
1.138921848447469
 10
0.6193140591482767
 20
1.138921848447469
 10
0.6193140591482376
 20
1.221544232406225
 10
0.5143140591482443
 20
1.221544232406224
 10
0.5143140591482407
 20
1.231544232406224
 10
0.5343140591482439
 20
1.231544232406224
 10
0.5343140591482439
 20
1.301544232406224
 10
0.5143140591482407
 20
1.301544232406224
 10
0.5143140591482443
 20
1.311544232406224
 10
0.6100979769432442
 20
1.311544232406227
 10
0.6100979769432442
 20
1.520722770055186
 10
0.8393140591482612
 20
1.520722770055195
 10
0.839314059148247
 20
1.469722770055201
 10
0.8300979769432501
 20
1.469722770055201
 10
0.8300979769432359
 20
1.334722770055196
 10
0.8393140591482541
 20
1.334722770055197
 10
0.8393140591482541
 20
1.301544232406222
 10
0.8193140591482475
 20
1.301544232406222
 10
0.8193140591482475
 20
1.231544232406222
 10
0.8333853784612479
 20
1.231544232406221
 10
0.8333853784612195
 20
1.138921848447469
 10
0.8133853784612163
 20
1.138921848447469
 10
0.8133853784612163
 20
1.078921848447468
 10
0.8383853784612291
 20
1.078921848447468
 10
0.8383853784612185
 20
1.052921848447467
 10
0.8333853784612159
 20
1.052921848447467
 10
0.8333853784612159
 20
1.022921848447466
 10
0.8427554572580788
 20
1.022921848447463
 10
0.8427554572580824
 20
0.9956326724975497
 10
0.8393499454471857
 20
0.9956326724975523
 10
0.8393499454471715
 20
0.9612004178618018
 10
0.7949798667068926
 20
0.9612004178618018
 10
0.7949798667068926
 20
0.966105929672854
 10
0.7685467958409121
 20
0.9661059296728664
 10
0.7685467958409156
 20
0.9739799454208251
 10
0.7921058509590609
 20
0.9739799454208251
 10
0.7921058509590573
 20
0.9906326724968685
 10
0.7333853784612217
 20
0.9906326724969307
 10
0.7333853784612217
 20
1.052921848447467
 10
0.645885378461216
 20
1.05292184844746
  0
CIRCLE
  5
2EBD6
330
2
100
AcDbEntity
  8
ZDRILL
100
AcDbCircle
 10
0.4950979769432422
 20
1.243572701132808
 30
0.0000000000000001
 40
0.0075
  0
CIRCLE
  5
2EBD7
330
2
100
AcDbEntity
  8
ZDRILL
100
AcDbCircle
 10
0.4950979769432422
 20
1.305212577927465
 30
0.0000000000000001
 40
0.0075
  0
CIRCLE
  5
2EBDA
330
2
100
AcDbEntity
  8
ZDRILL
100
AcDbCircle
 10
1.215097976943255
 20
1.343572701132809
 30
0.0000000000000001
 40
0.0075
  0
CIRCLE
  5
2EBDB
330
2
100
AcDbEntity
  8
ZDRILL
100
AcDbCircle
 10
1.315097976943256
 20
1.343572701132809
 30
0.0000000000000001
 40
0.0075
  0
CIRCLE
  5
2EBDC
330
2
100
AcDbEntity
  8
ZDRILL
100
AcDbCircle
 10
1.134915796918022
 20
1.343572701132809
 30
0.0000000000000001
 40
0.0075
  0
CIRCLE
  5
2EBDD
330
2
100
AcDbEntity
  8
ZDRILL
100
AcDbCircle
 10
1.215097976943255
 20
1.643572701132813
 30
0.0000000000000001
 40
0.0075
  0
CIRCLE
  5
2EBDE
330
2
100
AcDbEntity
  8
ZDRILL
100
AcDbCircle
 10
1.315097976943256
 20
1.643572701132813
 30
0.0000000000000001
 40
0.0075
  0
CIRCLE
  5
2EBDF
330
2
100
AcDbEntity
  8
ZDRILL
100
AcDbCircle
 10
1.215097976943255
 20
1.44357270113281
 30
0.0000000000000001
 40
0.0075
  0
CIRCLE
  5
2EBE0
330
2
100
AcDbEntity
  8
ZDRILL
100
AcDbCircle
 10
1.215097976943255
 20
1.543572701132812
 30
0.0000000000000001
 40
0.0075
  0
CIRCLE
  5
2EBE1
330
2
100
AcDbEntity
  8
ZDRILL
100
AcDbCircle
 10
1.315097976943256
 20
1.44357270113281
 30
0.0000000000000001
 40
0.0075
  0
CIRCLE
  5
2EBE2
330
2
100
AcDbEntity
  8
ZDRILL
100
AcDbCircle
 10
1.315097976943256
 20
1.543572701132812
 30
0.0000000000000001
 40
0.0075
  0
CIRCLE
  5
2EBE5
330
2
100
AcDbEntity
  8
ZDRILL
100
AcDbCircle
 10
1.134915796918022
 20
1.543572701132812
 30
0.0000000000000001
 40
0.0075
  0
CIRCLE
  5
2EBE6
330
2
100
AcDbEntity
  8
ZDRILL
100
AcDbCircle
 10
0.8554613080732629
 20
1.493888390907441
 30
0.0
 40
0.0075
  0
CIRCLE
  5
2EBE7
330
2
100
AcDbEntity
  8
ZDRILL
100
AcDbCircle
 10
1.013107841997971
 20
1.035236876123559
 30
0.0000000000000001
 40
0.0075
  0
CIRCLE
  5
2EBE8
330
2
100
AcDbEntity
  8
ZDRILL
100
AcDbCircle
 10
0.6978147741485543
 20
1.035236876123559
 30
0.0000000000000001
 40
0.0075
  0
CIRCLE
  5
2EBE9
330
2
100
AcDbEntity
  8
ZDRILL
100
AcDbCircle
 10
0.945314513976676
 20
0.8375727011828049
 30
0.0000000000000001
 40
0.0075
  0
TEXT
  5
2EBEE
330
2
100
AcDbEntity
  8
SLK-NS
100
AcDbText
 10
1.117838578609301
 20
1.627269868188846
 30
0.0
 40
0.04
  1
1
100
AcDbText
  0
TEXT
  5
2EBEF
330
2
100
AcDbEntity
  8
SLK-NS
100
AcDbText
 10
1.128013330516587
 20
1.39140628413024
 30
0.0
 40
0.04
  1
2
100
AcDbText
  0
TEXT
  5
2EBF0
330
2
100
AcDbEntity
  8
SLK-NS
100
AcDbText
 10
0.5605758645019776
 20
1.616418696360048
 30
0.0
 40
0.04
  1
9
100
AcDbText
  0
TEXT
  5
2EBF1
330
2
100
AcDbEntity
  8
SLK-NS
100
AcDbText
 10
0.5270588912861811
 20
1.390420158416594
 30
0.0
 40
0.04
  1
10
100
AcDbText
  0
TEXT
  5
2EBF2
330
2
100
AcDbEntity
  8
SLK-NS
100
AcDbText
 10
1.035857292797626
 20
0.4961478993364583
 30
0.0
 40
0.04
  1
1
100
AcDbText
  0
TEXT
  5
2EBF3
330
2
100
AcDbEntity
  8
SLK-NS
100
AcDbText
 10
1.028013330513669
 20
0.2722840007641611
 30
0.0
 40
0.04
  1
2
100
AcDbText
  0
TEXT
  5
2EBF4
330
2
100
AcDbEntity
  8
SLK-NS
100
AcDbText
 10
0.6507385303308802
 20
0.4961478993364583
 30
0.0
 40
0.04
  1
5
100
AcDbText
  0
TEXT
  5
2EBF5
330
2
100
AcDbEntity
  8
SLK-NS
100
AcDbText
 10
0.6428945680469234
 20
0.2722840007641611
 30
0.0
 40
0.04
  1
6
100
AcDbText
  0
LWPOLYLINE
  5
2ECBD
330
2
100
AcDbEntity
  8
MSK-NS-SCRATCH
100
AcDbPolyline
 90
        4
 70
     1
 43
0.0
 10
0.7753853784611935
 20
0.7860789063894984
 10
0.7753853784611935
 20
0.7200789063894995
 10
0.8163853784611973
 20
0.7200789063894995
 10
0.816385378461176
 20
0.7860789063894984
  0
LWPOLYLINE
  5
2ECC6
330
2
100
AcDbEntity
  8
MSK-NS-SCRATCH
100
AcDbPolyline
 90
        4
 70
     1
 43
0.0
 10
0.7103853784611887
 20
0.7860789063894984
 10
0.7103853784611887
 20
0.7200789063894959
 10
0.7513853784611926
 20
0.7200789063894995
 10
0.7513853784611926
 20
0.7860789063894984
  0
LINE
  5
2ECC7
330
2
100
AcDbEntity
  8
SLK-NS
100
AcDbLine
 10
0.8233853784612023
 20
0.713078906389459
 30
0.0
 11
0.8033853784612063
 21
0.7130789063894661
 31
0.0
  0
LINE
  5
2ECC8
330
2
100
AcDbEntity
  8
SLK-NS
100
AcDbLine
 10
0.8233853784612023
 20
0.713078906389459
 30
0.0
 11
0.8233853784612094
 21
0.7330789063894585
 31
0.0
  0
LINE
  5
2ECC9
330
2
100
AcDbEntity
  8
SLK-NS
100
AcDbLine
 10
0.8233853784612094
 20
0.7930789063894608
 30
0.0
 11
0.8033853784612134
 21
0.7930789063894679
 31
0.0
  0
LINE
  5
2ECCA
330
2
100
AcDbEntity
  8
SLK-NS
100
AcDbLine
 10
0.8233853784612094
 20
0.7930789063894573
 30
0.0
 11
0.8233853784612023
 21
0.7730789063894577
 31
0.0
  0
LINE
  5
2ECCB
330
2
100
AcDbEntity
  8
SLK-NS
100
AcDbLine
 10
0.7033853784612086
 20
0.7930789063894608
 30
0.0
 11
0.7233853784612046
 21
0.7930789063894679
 31
0.0
  0
LINE
  5
2ECCC
330
2
100
AcDbEntity
  8
SLK-NS
100
AcDbLine
 10
0.7033853784612086
 20
0.7930789063894573
 30
0.0
 11
0.7033853784612015
 21
0.7730789063894577
 31
0.0
  0
LINE
  5
2ECCD
330
2
100
AcDbEntity
  8
SLK-NS
100
AcDbLine
 10
0.7033853784611837
 20
0.713078906389459
 30
0.0
 11
0.7233853784611797
 21
0.7130789063894661
 31
0.0
  0
LINE
  5
2ECCE
330
2
100
AcDbEntity
  8
SLK-NS
100
AcDbLine
 10
0.7033853784612015
 20
0.713078906389459
 30
0.0
 11
0.7033853784612086
 21
0.7330789063894585
 31
0.0
  0
LINE
  5
2ECD1
330
2
100
AcDbEntity
  8
SLK-NS
100
AcDbLine
 10
0.6983853784612029
 20
0.6024910110957249
 30
0.0
 11
0.69838537846121
 21
0.6224910110957245
 31
0.0
  0
LINE
  5
2ECD2
330
2
100
AcDbEntity
  8
SLK-NS
100
AcDbLine
 10
0.8833853784612051
 20
0.6024910110957249
 30
0.0
 11
0.883385378461198
 21
0.6224910110957245
 31
0.0
  0
LINE
  5
2ECD3
330
2
100
AcDbEntity
  8
SLK-NS
100
AcDbLine
 10
0.6983853784612029
 20
0.6024910110957214
 30
0.0
 11
0.7183853784611989
 21
0.6024910110957143
 31
0.0
  0
LINE
  5
2ECD5
330
2
100
AcDbEntity
  8
SLK-NS
100
AcDbLine
 10
0.8833853784612051
 20
0.6024910110957214
 30
0.0
 11
0.8633853784612091
 21
0.6024910110957143
 31
0.0
  0
LWPOLYLINE
  5
2ECD6
330
2
100
AcDbEntity
  8
MSK-NS-SCRATCH
100
AcDbPolyline
 90
        4
 70
     1
 43
0.0
 10
0.7513853784612002
 20
0.685491011095718
 10
0.751385378461186
 20
0.6094910110957193
 10
0.7053853784612008
 20
0.6094910110957193
 10
0.7053853784612008
 20
0.685491011095718
  0
LINE
  5
2ECD7
330
2
100
AcDbEntity
  8
SLK-NS
100
AcDbLine
 10
0.6983853784612029
 20
0.6924910110957195
 30
0.0
 11
0.6983853784611958
 21
0.6724910110957199
 31
0.0
  0
LINE
  5
2ECD8
330
2
100
AcDbEntity
  8
SLK-NS
100
AcDbLine
 10
0.6983853784612029
 20
0.6924910110957195
 30
0.0
 11
0.7183853784611989
 21
0.6924910110957124
 31
0.0
  0
LWPOLYLINE
  5
2ECE3
330
2
100
AcDbEntity
  8
MSK-NS-SCRATCH
100
AcDbPolyline
 90
        4
 70
     1
 43
0.0
 10
0.8303853784612007
 20
0.6854910110957198
 10
0.8303853784612007
 20
0.6094910110957193
 10
0.8763853784612143
 20
0.6094910110957193
 10
0.8763853784612072
 20
0.6854910110957162
  0
LINE
  5
2ECE4
330
2
100
AcDbEntity
  8
SLK-NS
100
AcDbLine
 10
0.8633853784612091
 20
0.6924910110957195
 30
0.0
 11
0.8833853784612122
 21
0.6924910110957195
 31
0.0
  0
LINE
  5
2ECE5
330
2
100
AcDbEntity
  8
SLK-NS
100
AcDbLine
 10
0.8833853784611838
 20
0.6724910110956701
 30
0.0
 11
0.8833853784611909
 21
0.6924910110957159
 31
0.0
  0
LINE
  5
2ECFD
330
2
100
AcDbEntity
  8
SLK-NS
100
AcDbLine
 10
0.9719680557410441
 20
1.088834356902092
 30
0.0
 11
0.9719680557410512
 21
1.106211024397346
 31
0.0
  0
LINE
  5
2ECFE
330
2
100
AcDbEntity
  8
SLK-NS
100
AcDbLine
 10
0.9719680557410512
 20
1.133587691892609
 30
0.0
 11
0.9719680557410512
 21
1.116211024397347
 31
0.0
  0
LINE
  5
2ECFF
330
2
100
AcDbEntity
  8
SLK-NS
100
AcDbLine
 10
0.9719680557410512
 20
1.133587691892609
 30
0.0
 11
0.9919680557410401
 21
1.133587691892609
 31
0.0
  0
LINE
  5
2ED00
330
2
100
AcDbEntity
  8
SLK-NS
100
AcDbLine
 10
0.9719680557410583
 20
1.088834356902092
 30
0.0
 11
0.9919680557410401
 21
1.088834356902092
 31
0.0
  0
LWPOLYLINE
  5
2ED01
330
2
100
AcDbEntity
  8
MSK-NS-SCRATCH
100
AcDbPolyline
 90
        4
 70
     1
 43
0.0
 10
0.978968055741042
 20
1.129211024397349
 10
0.9789680557410491
 20
1.09321102439735
 10
0.9999680557410428
 20
1.09321102439735
 10
0.9999680557410428
 20
1.129211024397349
  0
LINE
  5
2ED02
330
2
100
AcDbEntity
  8
SLK-NS
100
AcDbLine
 10
1.041968055741051
 20
1.133587691892609
 30
0.0
 11
1.021968055741062
 21
1.133587691892609
 31
0.0
  0
LINE
  5
2ED03
330
2
100
AcDbEntity
  8
SLK-NS
100
AcDbLine
 10
1.041968055741051
 20
1.133587691892609
 30
0.0
 11
1.041968055741051
 21
1.116211024397347
 31
0.0
  0
LINE
  5
2ED04
330
2
100
AcDbEntity
  8
SLK-NS
100
AcDbLine
 10
1.041968055741044
 20
1.088834356902092
 30
0.0
 11
1.041968055741051
 21
1.106211024397346
 31
0.0
  0
LINE
  5
2ED05
330
2
100
AcDbEntity
  8
SLK-NS
100
AcDbLine
 10
1.041968055741044
 20
1.088834356902092
 30
0.0
 11
1.021968055741062
 21
1.088834356902092
 31
0.0
  0
LWPOLYLINE
  5
2ED06
330
2
100
AcDbEntity
  8
MSK-NS-SCRATCH
100
AcDbPolyline
 90
        4
 70
     1
 43
0.0
 10
1.03496805574106
 20
1.129211024397349
 10
1.034968055741053
 20
1.09321102439735
 10
1.013968055741059
 20
1.09321102439735
 10
1.013968055741059
 20
1.129211024397349
  0
CIRCLE
  5
2ED08
330
2
100
AcDbEntity
  8
ZDRILL
100
AcDbCircle
 10
1.053265322313748
 20
1.108526052073443
 30
0.0000000000000001
 40
0.0075
  0
CIRCLE
  5
2ED0F
330
2
100
AcDbEntity
  8
ZDRILL
100
AcDbCircle
 10
1.134915796918022
 20
1.243572701132808
 30
0.0000000000000001
 40
0.0075
  0
CIRCLE
  5
2ED10
330
2
100
AcDbEntity
  8
ZDRILL
100
AcDbCircle
 10
1.215097976943255
 20
1.243572701132808
 30
0.0000000000000001
 40
0.0075
  0
CIRCLE
  5
2ED11
330
2
100
AcDbEntity
  8
ZDRILL
100
AcDbCircle
 10
0.8351062073719965
 20
0.7537003295300737
 30
0.0
 40
0.0075
  0
LWPOLYLINE
  5
2ED1C
330
2
100
AcDbEntity
  8
LAY1
100
AcDbPolyline
 90
       80
 70
     1
 43
0.0
 10
0.703385378461217
 20
0.8743530831493568
 10
0.7133853784612221
 20
0.8743530831493568
 10
0.7133853784612221
 20
0.8443530831493566
 10
0.703385378461217
 20
0.8443530831493566
 10
0.7033853784612206
 20
0.8143530831493572
 10
0.6904129375702542
 20
0.8143530831493574
 10
0.6904129375702546
 20
0.3506004866891246
 10
0.7800979769403505
 20
0.3506004866891246
 10
0.7800979769403505
 20
0.215600486689123
 10
0.7300979769403391
 20
0.215600486689123
 10
0.7300979769403391
 20
0.3106004866891237
 10
0.7100979769403431
 20
0.3106004866891237
 10
0.7100979769403431
 20
0.180515447389111
 10
0.3450979769490635
 20
0.1805154473891047
 10
0.3450979769432157
 20
0.927272701157725
 10
0.8008949493452135
 20
0.9272727011457932
 10
0.8008949493452313
 20
0.9538727011457934
 10
0.3450979769490564
 20
0.9538727011577234
 10
0.3450979769490635
 20
1.700015447389107
 10
0.62009797694326
 20
1.700015447389107
 10
0.6200979769432565
 20
1.560722770055213
 10
0.6300979769432474
 20
1.560722770055213
 10
0.6300979769432474
 20
1.655722770055201
 10
0.6800979769432445
 20
1.655722770055201
 10
0.6800979769432445
 20
1.560722770055212
 10
0.7300979769432488
 20
1.560722770055216
 10
0.7300979769432559
 20
1.655722770055201
 10
0.780097976943253
 20
1.655722770055201
 10
0.7800979769432459
 20
1.560722770055212
 10
0.8300979769432501
 20
1.560722770055215
 10
0.8300979769432501
 20
1.655722770055201
 10
0.8800979769432473
 20
1.655722770055201
 10
0.8800979769432473
 20
1.560722770055212
 10
0.9300979769432586
 20
1.560722770055213
 10
0.9300979769432515
 20
1.655722770055201
 10
0.9800979769432416
 20
1.655722770055203
 10
0.980097976943238
 20
1.560722770055213
 10
1.030097976943249
 20
1.560722770055214
 10
1.030097976943238
 20
1.655722770055219
 10
1.08009797694325
 20
1.655722770055219
 10
1.08009797694325
 20
1.560722770055213
 10
1.090097976943241
 20
1.560722770055213
 10
1.090097976943233
 20
1.700015447389104
 10
1.365097976931621
 20
1.700015447389107
 10
1.365097976931614
 20
0.9538727011577234
 10
0.9093010045354397
 20
0.9538727011457934
 10
0.9093010045354574
 20
0.9272727011457932
 10
1.365097976943281
 20
0.927272701157725
 10
1.365097976931607
 20
0.1805154473891225
 10
1.000097976940327
 20
0.1805154473891163
 10
1.000097976940327
 20
0.3106004866891237
 10
0.9800979769403319
 20
0.3106004866891237
 10
0.9800979769403248
 20
0.215600486689123
 10
0.9300979769403276
 20
0.215600486689123
 10
0.9300979769403276
 20
0.3506004866891246
 10
1.019783016196164
 20
0.3506004866891246
 10
1.019783016196168
 20
0.5566004866891232
 10
0.8533853784611835
 20
0.5566004866891234
 10
0.8533853784612039
 20
0.6124910110957194
 10
0.8333853784612008
 20
0.6124910110957194
 10
0.8333853784612008
 20
0.6824910110957197
 10
0.8533853784612039
 20
0.6824910110957197
 10
0.8533853784611981
 20
0.7006272301608681
 10
0.795885378461199
 20
0.7006272301608681
 10
0.795885378461199
 20
0.7230789063894996
 10
0.7783853784611936
 20
0.7230789063894996
 10
0.7783853784611936
 20
0.7830789063895001
 10
0.8004210381176658
 20
0.7830789063895001
 10
0.8004210381176655
 20
0.7930789063895001
 10
0.7660930948732272
 20
0.7930789063895001
 10
0.7660930948732272
 20
0.8676807328224533
 10
0.8048853785180476
 20
0.8676807328224542
 10
0.8048853785180476
 20
0.8755547485704129
 10
0.7685467958408943
 20
0.8755547485704129
 10
0.7685467958408943
 20
0.8873657721924859
 10
0.8048853785180298
 20
0.8873657721924859
 10
0.8048853785180263
 20
0.9149248273104531
 10
0.7705227703965747
 20
0.9149248273104744
 10
0.7399510262354419
 20
0.8843530831493495
 10
0.703385378461217
 20
0.8843530831493486
  0
LWPOLYLINE
  5
2ED1E
330
2
100
AcDbEntity
  8
SCRATCH1
100
AcDbPolyline
 90
       36
 70
     1
 43
0.0
 10
0.8905310478092651
 20
0.9956326724975523
 10
0.8787200241873449
 20
0.9956326724975488
 10
0.8787200241873307
 20
0.9612004178618018
 10
0.8511609690692907
 20
0.9612004178618018
 10
0.8511609690693049
 20
0.9956326724975514
 10
0.8477554572580778
 20
0.9956326724975497
 10
0.8477554572580707
 20
1.022921848447456
 10
0.8768105754252601
 20
1.022921848447466
 10
0.8768105754252601
 20
1.052921848447467
 10
0.8718105754252576
 20
1.052921848447467
 10
0.8718105754252611
 20
1.078921848447468
 10
0.8968105754252739
 20
1.078921848447468
 10
0.8968105754252739
 20
1.138921848447469
 10
0.8768105754252779
 20
1.138921848447469
 10
0.8768105754252495
 20
1.231544232406221
 10
0.8908818947382499
 20
1.231544232406222
 10
0.8908818947382499
 20
1.301544232406222
 10
0.8708818947382468
 20
1.301544232406222
 10
0.8708818947382397
 20
1.334722770055199
 10
0.8800979769432473
 20
1.334722770055202
 10
0.8800979769432473
 20
1.469722770055201
 10
0.8708818947382503
 20
1.469722770055201
 10
0.8708818947382361
 20
1.520722770055195
 10
1.100097976943253
 20
1.520722770055186
 10
1.100097976943253
 20
1.136458579417122
 10
1.016968055741049
 20
1.136458579417123
 10
1.016968055741044
 20
1.052921848447464
 10
0.9768105754252722
 20
1.052921848447468
 10
0.9768105754252687
 20
0.9906326724969307
 10
0.918090102927433
 20
0.9906326724968685
 10
0.9180901029274295
 20
0.9739799454208251
 10
0.9416491580455748
 20
0.9739799454208251
 10
0.9416491580455783
 20
0.9661059296728664
 10
0.9152160871795977
 20
0.966105929672854
 10
0.9152160871795977
 20
0.9612004178618018
 10
0.8905310478092438
 20
0.9612004178618018
  0
LWPOLYLINE
  5
2ED1F
330
2
100
AcDbEntity
  8
pad1
100
AcDbPolyline
 90
       32
 70
     1
 43
0.0
 10
0.9869680557416629
 20
1.096211024397346
 10
0.9869680557416629
 20
1.06292184844885
 10
0.9468105754259568
 20
1.062921848448852
 10
0.9468105754259568
 20
1.052921848447467
 10
0.9568105754252727
 20
1.052921848447467
 10
0.9568105754252727
 20
1.022921848447466
 10
0.9468105754258857
 20
1.022921848447462
 10
0.9468105754261735
 20
1.000632672496898
 10
0.9068105753683077
 20
1.000632672496856
 10
0.9068105753683077
 20
0.9956326724975514
 10
0.9102160871793465
 20
0.9956326724975514
 10
0.9102160871793323
 20
0.9690114414838335
 10
0.8984050635572842
 20
0.9690114414838335
 10
0.8984050635572877
 20
0.9956326724975532
 10
0.9018105753683123
 20
0.9956326724975497
 10
0.9018105753683123
 20
1.005632672497543
 10
0.9418105754252756
 20
1.005632672497585
 10
0.9418105754252614
 20
1.067921848449543
 10
0.9819680557409768
 20
1.067921848449541
 10
0.9819680557409643
 20
1.17645857941713
 10
1.050881894738242
 20
1.176458579417129
 10
1.050881894738243
 20
1.334722770055202
 10
1.030097976943253
 20
1.334722770055203
 10
1.030097976943253
 20
1.469722770055212
 10
1.08009797694325
 20
1.469722770055201
 10
1.08009797694325
 20
1.334722770055203
 10
1.070881894738249
 20
1.334722770055202
 10
1.07088189473823
 20
1.156458579417122
 10
0.9919680557424971
 20
1.156458579417123
 10
0.9919680557424982
 20
1.126211024397351
 10
0.9969680557410498
 20
1.126211024397351
 10
0.9969680557410498
 20
1.09621102439735
  0
LWPOLYLINE
  5
2ED44
330
2
100
AcDbEntity
  8
LAY1
100
AcDbPolyline
 90
       28
 70
     1
 43
0.0
 10
0.7970743548959938
 20
0.9070508115624313
 10
0.7754531238822758
 20
0.9070508115624456
 10
0.7754531238822758
 20
0.9036452997514068
 10
0.76631431064936
 20
0.9036452997514059
 10
0.7433853784612268
 20
0.8807163675632727
 10
0.7433853784612268
 20
0.8743530831493586
 10
0.7333853784612181
 20
0.8743530831493577
 10
0.7333853784612181
 20
0.8443530831493566
 10
0.7383853784612269
 20
0.844353083149355
 10
0.7383853784612274
 20
0.7830789063895001
 10
0.708542858776275
 20
0.7830789063895001
 10
0.7085428587762804
 20
0.7230789063894996
 10
0.7383853784612274
 20
0.7230789063894994
 10
0.7383853784612269
 20
0.6824910110957197
 10
0.7083853784611894
 20
0.6824910110957201
 10
0.7083853784611894
 20
0.6124910110957196
 10
0.7383853784612256
 20
0.6124910110957194
 10
0.7383853784612247
 20
0.5366004866891237
 10
0.7300979769403249
 20
0.5366004866891246
 10
0.7300979769403249
 20
0.401600486689123
 10
0.7800979769403221
 20
0.401600486689123
 10
0.7800979769403256
 20
0.5366004866891246
 10
0.7483853784612009
 20
0.5366004866891254
 10
0.7483853784611996
 20
0.8786452997513885
 10
0.7683853784612218
 20
0.8986452997514113
 10
0.7754531238822793
 20
0.8986452997514113
 10
0.7754531238822758
 20
0.8952397879403868
 10
0.7970743548959938
 20
0.8952397879403832
  0
LWPOLYLINE
  5
2ED5D
330
2
100
AcDbEntity
  8
SLK-NS
100
AcDbPolyline
 90
        4
 70
     1
 43
0.0
 10
0.4965437056225817
 20
0.2310743033080349
 10
0.5248741404052879
 20
0.2594047380907944
 10
0.5827154447533421
 20
0.2594047380907944
 10
0.5543850099706358
 20
0.2310743033080349
  0
LWPOLYLINE
  5
2ED5E
330
2
100
AcDbEntity
  8
SLK-NS
100
AcDbPolyline
 90
        4
 70
     1
 43
0.0
 10
0.4965437056225817
 20
0.3184264772214369
 10
0.5248741404052879
 20
0.2900960424386774
 10
0.5827154447533421
 20
0.2900960424386774
 10
0.5543850099706358
 20
0.3184264772214369
  0
TEXT
  5
2ED5F
330
2
100
AcDbEntity
  8
SLK-NS
100
AcDbText
 10
0.5605046740155153
 20
0.3491156685443293
 30
0.0000000000000003
 40
0.0525
  1
MMIC
 50
90.0
100
AcDbText
  0
LWPOLYLINE
  5
2ED60
330
2
100
AcDbEntity
  8
SLK-NS
100
AcDbPolyline
 90
        4
 70
     1
 43
0.0
 10
0.4847393577964319
 20
0.2782916946126341
 10
0.4446045751875758
 20
0.3184264772214369
 10
0.4847393577964319
 20
0.3184264772214369
 10
0.5248741404052879
 20
0.2782916946126341
  0
LWPOLYLINE
  5
2ED61
330
2
100
AcDbEntity
  8
SLK-NS
100
AcDbPolyline
 90
        4
 70
     1
 43
0.0
 10
0.5248741404052879
 20
0.2712090859168377
 10
0.4847393577964319
 20
0.2712090859168377
 10
0.4646719664920039
 20
0.2511416946124363
 10
0.4847393577964319
 20
0.2310743033080349
  0
LWPOLYLINE
  5
2ED62
330
2
100
AcDbEntity
  8
SLK-NS
100
AcDbPolyline
 90
        4
 70
     1
 43
0.0
 10
0.4328002273614527
 20
0.2310743033080349
 10
0.3926654447525966
 20
0.2712090859168377
 10
0.4328002273614527
 20
0.2712090859168377
 10
0.4729350099703087
 20
0.2310743033080349
  0
TEXT
  5
2ED63
330
2
100
AcDbEntity
  8
SLK-NS
100
AcDbText
 10
0.4915588306087848
 20
0.3458792588296127
 30
0.0000000000000002
 40
0.0525
  1
Custom
 50
90.0
100
AcDbText
  0
LWPOLYLINE
  5
2ED64
330
2
100
AcDbEntity
  8
LAY2
100
AcDbPolyline
 90
        4
 70
     1
 43
0.0
 10
1.365097976943246
 20
1.700515447389094
 10
0.3450979769432512
 20
1.700515447389094
 10
0.3450979769432513
 20
0.180515447389096
 10
1.365097976943246
 20
0.1805154473890959
1001
cdspoly
1000

  0
LWPOLYLINE
  5
2ED65
330
2
100
AcDbEntity
  8
MSK-NS
100
AcDbPolyline
 90
        4
 70
     1
 43
0.0
 10
1.365097976943248
 20
1.700515447389095
 10
0.3450979769432487
 20
1.700515447389095
 10
0.3450979769432487
 20
0.1805154473890949
 10
1.365097976943248
 20
0.1805154473890951
1001
cdspoly
1000

  0
ENDSEC
  0
SECTION
  2
OBJECTS
  0
DICTIONARY
  5
7
330
0
100
AcDbDictionary
281
     1
  3
ACAD_GROUP
350
27
  3
ACAD_LAYOUT
350
B
  3
ACAD_MLINESTYLE
350
28
  3
ACAD_PLOTSETTINGS
350
29
  3
ACAD_PLOTSTYLENAME
350
6
  3
AcDbVariableDictionary
350
23A9
  0
DICTIONARY
  5
11
330
10
100
AcDbDictionary
280
     1
281
     1
  3
ACAD_LAYERFILTERS
360
12
  3
ACAD_LAYERSTATES
360
15
  0
DICTIONARY
  5
106
330
105
100
AcDbDictionary
280
     1
281
     1
  3
ACAD_XREC_ROUNDTRIP
360
107
  0
DICTIONARY
  5
10B
330
10A
100
AcDbDictionary
280
     1
281
     1
  3
ACAD_XREC_ROUNDTRIP
360
10C
  0
DICTIONARY
  5
116
330
115
100
AcDbDictionary
280
     1
281
     1
  3
ACAD_XREC_ROUNDTRIP
360
117
  0
DICTIONARY
  5
2B
330
2A
100
AcDbDictionary
280
     1
281
     1
  3
ACAD_XREC_ROUNDTRIP
360
2C
  0
DICTIONARY
  5
27
102
{ACAD_REACTORS
330
7
102
}
330
7
100
AcDbDictionary
281
     1
  0
DICTIONARY
  5
B
102
{ACAD_REACTORS
330
7
102
}
330
7
100
AcDbDictionary
281
     1
  3
Layout1
350
F
  3
Model
350
A
  0
DICTIONARY
  5
28
102
{ACAD_REACTORS
330
7
102
}
330
7
100
AcDbDictionary
281
     1
  3
Standard
350
2D
  0
DICTIONARY
  5
29
102
{ACAD_REACTORS
330
7
102
}
330
7
100
AcDbDictionary
281
     1
  0
ACDBDICTIONARYWDFLT
  5
6
102
{ACAD_REACTORS
330
7
102
}
330
7
100
AcDbDictionary
281
     1
  3
Normal
350
5
100
AcDbDictionaryWithDefault
340
5
  0
DICTIONARY
  5
23A9
102
{ACAD_REACTORS
330
7
102
}
330
7
100
AcDbDictionary
281
     1
  3
SORTENTS
350
23AA
  0
DICTIONARY
  5
12
102
{ACAD_REACTORS
330
11
102
}
330
11
100
AcDbDictionary
280
     1
281
     1
  3
CAM
360
13
  3
On layers
360
14
  0
DICTIONARY
  5
15
102
{ACAD_REACTORS
330
11
102
}
330
11
100
AcDbDictionary
281
     1
  0
XRECORD
  5
107
102
{ACAD_REACTORS
330
106
102
}
330
106
100
AcDbXrecord
280
     1
102
MATERIAL
340
0
  0
XRECORD
  5
10C
102
{ACAD_REACTORS
330
10B
102
}
330
10B
100
AcDbXrecord
280
     1
102
MATERIAL
340
0
  0
XRECORD
  5
117
102
{ACAD_REACTORS
330
116
102
}
330
116
100
AcDbXrecord
280
     1
102
MATERIAL
340
0
  0
XRECORD
  5
2C
102
{ACAD_REACTORS
330
2B
102
}
330
2B
100
AcDbXrecord
280
     1
102
MATERIAL
340
0
  0
LAYOUT
  5
F
102
{ACAD_REACTORS
330
B
102
}
330
B
100
AcDbPlotSettings
  1

  2
None
  4

  6

 40
0.0
 41
0.0
 42
0.0
 43
0.0
 44
0.0
 45
0.0
 46
0.0
 47
0.0
 48
0.0
 49
0.0
140
0.0
141
0.0
142
1.0
143
1.0
 70
   688
 72
     0
 73
     0
 74
     5
  7
monochrome.ctb
 75
    16
147
1.0
148
0.0
149
0.0
100
AcDbLayout
  1
Layout1
 70
     1
 71
     1
 10
0.0
 20
0.0
 11
12.0
 21
9.0
 12
0.0
 22
0.0
 32
0.0
 14
0.0
 24
0.0
 34
0.0
 15
0.0
 25
0.0
 35
0.0
146
0.0
 13
0.0
 23
0.0
 33
0.0
 16
1.0
 26
0.0
 36
0.0
 17
0.0
 27
1.0
 37
0.0
 76
     0
330
C
  0
LAYOUT
  5
A
102
{ACAD_REACTORS
330
B
102
}
330
B
100
AcDbPlotSettings
  1

  2
Acrobat Distiller
  4
User32767
  6

 40
3.174999952316284
 41
3.174999952316284
 42
3.175003051757812
 43
3.17498779296875
 44
215.9000091552734
 45
279.3999938964843
 46
0.0
 47
0.0
 48
-23.65376490788975
 49
6.280233888154199
140
-23.15549746682032
141
6.628123898768279
142
1.0
143
0.0463504585901945
 70
 11792
 72
     0
 73
     1
 74
     4
  7
monochrome.ctb
 75
     0
147
21.57475956907901
148
600.8056286603996
149
-159.5179407591166
100
AcDbLayout
  1
Model
 70
     1
 71
     0
 10
0.0
 20
0.0
 11
12.0
 21
9.0
 12
0.0
 22
0.0
 32
0.0
 14
0.0
 24
0.0
 34
0.0
 15
0.0
 25
0.0
 35
0.0
146
0.0
 13
0.0
 23
0.0
 33
0.0
 16
1.0
 26
0.0
 36
0.0
 17
0.0
 27
1.0
 37
0.0
 76
     0
330
2
  0
MLINESTYLE
  5
2D
102
{ACAD_REACTORS
330
28
102
}
330
28
100
AcDbMlineStyle
  2
STANDARD
 70
     0
  3

 62
   256
 51
90.0
 52
90.0
 71
     2
 49
0.5
 62
   256
  6
BYLAYER
 49
-0.5
 62
   256
  6
BYLAYER
  0
ACDBPLACEHOLDER
  5
5
102
{ACAD_REACTORS
330
6
102
}
330
6
  0
DICTIONARYVAR
  5
23AA
102
{ACAD_REACTORS
330
23A9
102
}
330
23A9
100
DictionaryVariables
280
     0
  1
96
  0
XRECORD
  5
13
102
{ACAD_REACTORS
330
12
102
}
330
12
100
AcDbXrecord
280
     1
  1
CAM
  1
*draw*,*flash*
  1
*
  1
*
 70
     0
  1
*
  1
*
  0
XRECORD
  5
14
102
{ACAD_REACTORS
330
12
102
}
330
12
100
AcDbXrecord
280
     1
  1
On layers
  1
*
  1
*
  1
*
 70
     1
  1
*
  1
*
  0
ENDSEC
  0
EOF
